0
SECTION
  2
HEADER
  9
$ACADVER
  1
AC1015
  9
$ACADMAINTVER
 70
    20
  9
$DWGCODEPAGE
  3
ANSI_1252
  9
$INSBASE
 10
0.0
 20
0.0
 30
0.0
  9
$EXTMIN
 10
-0.1787975923764833
 20
0.0011040112240082
 30
-2.748333443396635
  9
$EXTMAX
 10
8.889339969254212
 20
10.0742788181173
 30
0.0
  9
$LIMMIN
 10
0.0
 20
0.0
  9
$LIMMAX
 10
12.0
 20
9.0
  9
$ORTHOMODE
 70
     1
  9
$REGENMODE
 70
     1
  9
$FILLMODE
 70
     1
  9
$QTEXTMODE
 70
     0
  9
$MIRRTEXT
 70
     0
  9
$LTSCALE
 40
1.5
  9
$ATTMODE
 70
     1
  9
$TEXTSIZE
 40
0.25
  9
$TRACEWID
 40
0.05
  9
$TEXTSTYLE
  7
STANDARD
  9
$CLAYER
  8
USP
  9
$CELTYPE
  6
BYLAYER
  9
$CECOLOR
 62
   256
  9
$CELTSCALE
 40
1.0
  9
$DISPSILH
 70
     1
  9
$DIMSCALE
 40
5.0
  9
$DIMASZ
 40
0.125
  9
$DIMEXO
 40
0.0625
  9
$DIMDLI
 40
0.38
  9
$DIMRND
 40
0.0
  9
$DIMDLE
 40
0.0
  9
$DIMEXE
 40
0.09375
  9
$DIMTP
 40
0.0
  9
$DIMTM
 40
0.0
  9
$DIMTXT
 40
0.109375
  9
$DIMCEN
 40
0.0
  9
$DIMTSZ
 40
0.0
  9
$DIMTOL
 70
     0
  9
$DIMLIM
 70
     0
  9
$DIMTIH
 70
     1
  9
$DIMTOH
 70
     1
  9
$DIMSE1
 70
     0
  9
$DIMSE2
 70
     0
  9
$DIMTAD
 70
     0
  9
$DIMZIN
 70
     8
  9
$DIMBLK
  1

  9
$DIMASO
 70
     1
  9
$DIMSHO
 70
     1
  9
$DIMPOST
  1

  9
$DIMAPOST
  1

  9
$DIMALT
 70
     0
  9
$DIMALTD
 70
     2
  9
$DIMALTF
 40
25.4
  9
$DIMLFAC
 40
1.0
  9
$DIMTOFL
 70
     0
  9
$DIMTVP
 40
0.0
  9
$DIMTIX
 70
     0
  9
$DIMSOXD
 70
     0
  9
$DIMSAH
 70
     0
  9
$DIMBLK1
  1

  9
$DIMBLK2
  1

  9
$DIMSTYLE
  2
STANDARD
  9
$DIMCLRD
 70
   256
  9
$DIMCLRE
 70
   256
  9
$DIMCLRT
 70
   256
  9
$DIMTFAC
 40
1.0
  9
$DIMGAP
 40
0.09
  9
$DIMJUST
 70
     0
  9
$DIMSD1
 70
     0
  9
$DIMSD2
 70
     0
  9
$DIMTOLJ
 70
     1
  9
$DIMTZIN
 70
     0
  9
$DIMALTZ
 70
     0
  9
$DIMALTTZ
 70
     0
  9
$DIMUPT
 70
     1
  9
$DIMDEC
 70
     4
  9
$DIMTDEC
 70
     4
  9
$DIMALTU
 70
     2
  9
$DIMALTTD
 70
     2
  9
$DIMTXSTY
  7
STANDARD
  9
$DIMAUNIT
 70
     0
  9
$DIMADEC
 70
     0
  9
$DIMALTRND
 40
0.0
  9
$DIMAZIN
 70
     0
  9
$DIMDSEP
 70
    46
  9
$DIMATFIT
 70
     3
  9
$DIMFRAC
 70
     2
  9
$DIMLDRBLK
  1

  9
$DIMLUNIT
 70
     5
  9
$DIMLWD
 70
    -2
  9
$DIMLWE
 70
    -2
  9
$DIMTMOVE
 70
     0
  9
$LUNITS
 70
     5
  9
$LUPREC
 70
     6
  9
$SKETCHINC
 40
0.1
  9
$FILLETRAD
 40
0.0
  9
$AUNITS
 70
     0
  9
$AUPREC
 70
     1
  9
$MENU
  1
CUSTOM
  9
$ELEVATION
 40
0.0
  9
$PELEVATION
 40
0.0
  9
$THICKNESS
 40
0.0
  9
$LIMCHECK
 70
     0
  9
$CHAMFERA
 40
0.0
  9
$CHAMFERB
 40
0.0
  9
$CHAMFERC
 40
0.0
  9
$CHAMFERD
 40
0.0
  9
$SKPOLY
 70
     0
  9
$TDCREATE
 40
2451263.621564699
  9
$TDUCREATE
 40
2451263.829898032
  9
$TDUPDATE
 40
2455846.458525752
  9
$TDUUPDATE
 40
2455846.666859086
  9
$TDINDWG
 40
1.2975069444
  9
$TDUSRTIMER
 40
1.2975069444
  9
$USRTIMER
 70
     1
  9
$ANGBASE
 50
0.0
  9
$ANGDIR
 70
     0
  9
$PDMODE
 70
     0
  9
$PDSIZE
 40
0.0
  9
$PLINEWID
 40
0.0
  9
$SPLFRAME
 70
     0
  9
$SPLINETYPE
 70
     6
  9
$SPLINESEGS
 70
     8
  9
$HANDSEED
  5
F1
  9
$SURFTAB1
 70
     6
  9
$SURFTAB2
 70
     6
  9
$SURFTYPE
 70
     6
  9
$SURFU
 70
     6
  9
$SURFV
 70
     6
  9
$UCSBASE
  2

  9
$UCSNAME
  2

  9
$UCSORG
 10
0.0
 20
0.0
 30
0.0
  9
$UCSXDIR
 10
1.0
 20
0.0
 30
0.0
  9
$UCSYDIR
 10
0.0
 20
1.0
 30
0.0
  9
$UCSORTHOREF
  2

  9
$UCSORTHOVIEW
 70
     0
  9
$UCSORGTOP
 10
0.0
 20
0.0
 30
0.0
  9
$UCSORGBOTTOM
 10
0.0
 20
0.0
 30
0.0
  9
$UCSORGLEFT
 10
0.0
 20
0.0
 30
0.0
  9
$UCSORGRIGHT
 10
0.0
 20
0.0
 30
0.0
  9
$UCSORGFRONT
 10
0.0
 20
0.0
 30
0.0
  9
$UCSORGBACK
 10
0.0
 20
0.0
 30
0.0
  9
$PUCSBASE
  2

  9
$PUCSNAME
  2

  9
$PUCSORG
 10
0.0
 20
0.0
 30
0.0
  9
$PUCSXDIR
 10
1.0
 20
0.0
 30
0.0
  9
$PUCSYDIR
 10
0.0
 20
1.0
 30
0.0
  9
$PUCSORTHOREF
  2

  9
$PUCSORTHOVIEW
 70
     0
  9
$PUCSORGTOP
 10
0.0
 20
0.0
 30
0.0
  9
$PUCSORGBOTTOM
 10
0.0
 20
0.0
 30
0.0
  9
$PUCSORGLEFT
 10
0.0
 20
0.0
 30
0.0
  9
$PUCSORGRIGHT
 10
0.0
 20
0.0
 30
0.0
  9
$PUCSORGFRONT
 10
0.0
 20
0.0
 30
0.0
  9
$PUCSORGBACK
 10
0.0
 20
0.0
 30
0.0
  9
$USERI1
 70
     0
  9
$USERI2
 70
     0
  9
$USERI3
 70
     0
  9
$USERI4
 70
     0
  9
$USERI5
 70
     0
  9
$USERR1
 40
0.0
  9
$USERR2
 40
0.0
  9
$USERR3
 40
0.0
  9
$USERR4
 40
0.0
  9
$USERR5
 40
0.0
  9
$WORLDVIEW
 70
     1
  9
$SHADEDGE
 70
     3
  9
$SHADEDIF
 70
    70
  9
$TILEMODE
 70
     1
  9
$MAXACTVP
 70
    16
  9
$PINSBASE
 10
0.0
 20
0.0
 30
0.0
  9
$PLIMCHECK
 70
     0
  9
$PEXTMIN
 10
1.000000000000000E+20
 20
1.000000000000000E+20
 30
1.000000000000000E+20
  9
$PEXTMAX
 10
-1.000000000000000E+20
 20
-1.000000000000000E+20
 30
-1.000000000000000E+20
  9
$PLIMMIN
 10
0.0
 20
0.0
  9
$PLIMMAX
 10
12.0
 20
9.0
  9
$UNITMODE
 70
     0
  9
$VISRETAIN
 70
     0
  9
$PLINEGEN
 70
     0
  9
$PSLTSCALE
 70
     0
  9
$TREEDEPTH
 70
  3020
  9
$CMLSTYLE
  2
STANDARD
  9
$CMLJUST
 70
     0
  9
$CMLSCALE
 40
1.0
  9
$PROXYGRAPHICS
 70
     1
  9
$MEASUREMENT
 70
     0
  9
$CELWEIGHT
370
    -1
  9
$ENDCAPS
280
     0
  9
$JOINSTYLE
280
     0
  9
$LWDISPLAY
290
     0
  9
$INSUNITS
 70
     0
  9
$HYPERLINKBASE
  1

  9
$STYLESHEET
  1

  9
$XEDIT
290
     1
  9
$CEPSNTYPE
380
     0
  9
$PSTYLEMODE
290
     1
  9
$FINGERPRINTGUID
  2
{E1457320-2A79-4553-A676-4608306875C0}
  9
$VERSIONGUID
  2
{A1F40C77-7FF7-4EE1-97C4-6C6CD676957F}
  9
$EXTNAMES
290
     1
  9
$PSVPSCALE
 40
0.0
  9
$OLESTARTUP
290
     0
  0
ENDSEC
  0
SECTION
  2
CLASSES
  0
CLASS
  1
ACDBDICTIONARYWDFLT
  2
AcDbDictionaryWithDefault
  3
ObjectDBX Classes
 90
        0
280
     0
281
     0
  0
CLASS
  1
ACDBPLACEHOLDER
  2
AcDbPlaceHolder
  3
ObjectDBX Classes
 90
        0
280
     0
281
     0
  0
CLASS
  1
LAYOUT
  2
AcDbLayout
  3
ObjectDBX Classes
 90
        0
280
     0
281
     0
  0
CLASS
  1
DICTIONARYVAR
  2
AcDbDictionaryVar
  3
ObjectDBX Classes
 90
        0
280
     0
281
     0
  0
CLASS
  1
SORTENTSTABLE
  2
AcDbSortentsTable
  3
ObjectDBX Classes
 90
    32768
280
     0
281
     0
  0
ENDSEC
  0
SECTION
  2
TABLES
  0
TABLE
  2
VPORT
  5
CC
330
0
100
AcDbSymbolTable
 70
     2
  0
VPORT
  5
E9
330
CC
100
AcDbSymbolTableRecord
100
AcDbViewportTableRecord
  2
*Active
 70
     0
 10
0.0
 20
0.0
 11
1.0
 21
1.0
 12
-13.56617604627939
 22
15.30739730719553
 13
0.0
 23
0.0
 14
1.0
 24
1.0
 15
0.0
 25
0.0
 16
0.0
 26
0.0
 36
1.0
 17
23.09603071721725
 27
-10.27010416511326
 37
-10.44050274849355
 40
10.14750246957467
 41
2.092592592592592
 42
50.0
 43
0.0
 44
0.0
 50
0.0
 51
0.0
 71
     0
 72
   100
 73
     1
 74
     1
 75
     0
 76
     0
 77
     0
 78
     0
281
     0
 65
     1
110
0.0
120
0.0
130
0.0
111
1.0
121
0.0
131
0.0
112
0.0
122
1.0
132
0.0
 79
     0
146
0.0
  0
ENDTAB
  0
TABLE
  2
LTYPE
  5
C7
330
0
100
AcDbSymbolTable
 70
     1
  0
LTYPE
  5
C8
330
C7
100
AcDbSymbolTableRecord
100
AcDbLinetypeTableRecord
  2
BYBLOCK
 70
     0
  3

 72
    65
 73
     0
 40
0.0
  0
LTYPE
  5
C9
330
C7
100
AcDbSymbolTableRecord
100
AcDbLinetypeTableRecord
  2
BYLAYER
 70
     0
  3

 72
    65
 73
     0
 40
0.0
  0
LTYPE
  5
5
330
C7
100
AcDbSymbolTableRecord
100
AcDbLinetypeTableRecord
  2
CONTINUOUS
 70
     0
  3
Solid line
 72
    65
 73
     0
 40
0.0
  0
ENDTAB
  0
TABLE
  2
LAYER
  5
C5
330
0
100
AcDbSymbolTable
 70
     5
  0
LAYER
  5
53
330
C5
100
AcDbSymbolTableRecord
100
AcDbLayerTableRecord
  2
0
 70
     0
 62
     7
  6
CONTINUOUS
370
    -3
390
DD
  0
LAYER
  5
D
330
C5
100
AcDbSymbolTableRecord
100
AcDbLayerTableRecord
  2
USP-Geo
 70
     0
 62
     7
  6
CONTINUOUS
370
    -3
390
DD
  0
LAYER
  5
8
330
C5
100
AcDbSymbolTableRecord
100
AcDbLayerTableRecord
  2
USP-Txt
 70
     0
 62
     7
  6
CONTINUOUS
370
    -3
390
DD
  0
LAYER
  5
33
330
C5
100
AcDbSymbolTableRecord
100
AcDbLayerTableRecord
  2
USP-Hid
 70
     0
 62
     7
  6
CONTINUOUS
370
    -3
390
DD
  0
LAYER
  5
4
330
C5
100
AcDbSymbolTableRecord
100
AcDbLayerTableRecord
  2
USP
 70
     0
 62
     7
  6
CONTINUOUS
370
    -3
390
DD
  0
ENDTAB
  0
TABLE
  2
STYLE
  5
C6
330
0
100
AcDbSymbolTable
 70
     1
  0
STYLE
  5
B
330
C6
100
AcDbSymbolTableRecord
100
AcDbTextStyleTableRecord
  2
STANDARD
 70
     0
 40
0.0
 41
1.0
 50
0.0
 71
     0
 42
0.25
  3
txt
  4

  0
ENDTAB
  0
TABLE
  2
VIEW
  5
CA
330
0
100
AcDbSymbolTable
 70
     0
  0
ENDTAB
  0
TABLE
  2
UCS
  5
CB
330
0
100
AcDbSymbolTable
 70
     0
  0
ENDTAB
  0
TABLE
  2
APPID
  5
CE
330
0
100
AcDbSymbolTable
 70
     1
  0
APPID
  5
CF
330
CE
100
AcDbSymbolTableRecord
100
AcDbRegAppTableRecord
  2
ACAD
 70
     0
  0
ENDTAB
  0
TABLE
  2
DIMSTYLE
  5
D0
330
0
100
AcDbSymbolTable
 70
     1
100
AcDbDimStyleTable
 71
     0
  0
DIMSTYLE
105
D8
330
D0
100
AcDbSymbolTableRecord
100
AcDbDimStyleTableRecord
  2
STANDARD
 70
     0
 41
0.125
 44
0.09375
 78
     8
140
0.109375
141
0.0
276
     2
277
     5
340
B
  0
ENDTAB
  0
TABLE
  2
BLOCK_RECORD
  5
1
330
0
100
AcDbSymbolTable
 70
     3
  0
BLOCK_RECORD
  5
2
102
{ACAD_XDICTIONARY
360
BC
102
}
330
1
100
AcDbSymbolTableRecord
100
AcDbBlockTableRecord
  2
*MODEL_SPACE
340
E2
  0
BLOCK_RECORD
  5
C0
102
{ACAD_XDICTIONARY
360
C1
102
}
330
1
100
AcDbSymbolTableRecord
100
AcDbBlockTableRecord
  2
*PAPER_SPACE
340
E3
  0
BLOCK_RECORD
  5
6
330
1
100
AcDbSymbolTableRecord
100
AcDbBlockTableRecord
  2
RT3A_T
340
0
102
{BLKREFS
331
3
102
}
  0
BLOCK_RECORD
  5
56
330
1
100
AcDbSymbolTableRecord
100
AcDbBlockTableRecord
  2
RT3A_F
340
0
102
{BLKREFS
331
55
102
}
  0
BLOCK_RECORD
  5
89
330
1
100
AcDbSymbolTableRecord
100
AcDbBlockTableRecord
  2
RT3A_S
340
0
102
{BLKREFS
331
88
102
}
  0
ENDTAB
  0
ENDSEC
  0
SECTION
  2
BLOCKS
  0
BLOCK
  5
BE
330
2
100
AcDbEntity
  8
0
100
AcDbBlockBegin
  2
*MODEL_SPACE
 70
     0
 10
0.0
 20
0.0
 30
0.0
  3
*MODEL_SPACE
  1

  0
ENDBLK
  5
BF
330
2
100
AcDbEntity
  8
0
100
AcDbBlockEnd
  0
BLOCK
  5
C3
330
C0
100
AcDbEntity
 67
     1
  8
0
100
AcDbBlockBegin
  2
*PAPER_SPACE
 70
     0
 10
0.0
 20
0.0
 30
0.0
  3
*PAPER_SPACE
  1

  0
ENDBLK
  5
C4
330
C0
100
AcDbEntity
 67
     1
  8
0
100
AcDbBlockEnd
  0
BLOCK
  5
52
330
6
100
AcDbEntity
  8
0
100
AcDbBlockBegin
  2
RT3A_T
 70
     0
 10
0.0
 20
0.0
 30
0.0
  3
RT3A_T
  1

  0
TEXT
  5
7
330
6
100
AcDbEntity
  8
USP-Txt
100
AcDbText
 10
-1.15625
 20
-0.8475681887129127
 30
0.0
 40
0.25
  1
RT3A - TOP VIEW
 72
     1
 11
0.71875
 21
-0.8475681887129127
 31
0.0
100
AcDbText
  0
LINE
  5
C
330
6
100
AcDbEntity
  8
USP-Geo
100
AcDbLine
 10
1.562499999999961
 20
0.0
 30
0.0
 11
1.562499999999961
 21
0.0212500000000162
 31
0.0
  0
LINE
  5
10
330
6
100
AcDbEntity
  8
USP-Geo
100
AcDbLine
 10
1.562499999999961
 20
0.2756249999999412
 30
0.0
 11
1.562499999999961
 21
0.0212500000000162
 31
0.0
  0
LINE
  5
11
330
6
100
AcDbEntity
  8
USP-Geo
100
AcDbLine
 10
1.56249999999996
 20
1.411875000000003
 30
0.0
 11
1.56249999999996
 21
0.2756249999999394
 31
0.0
  0
LINE
  5
12
330
6
100
AcDbEntity
  8
USP-Geo
100
AcDbLine
 10
1.56249999999996
 20
1.421875
 30
0.0
 11
1.56249999999996
 21
1.411875000000009
 31
0.0
  0
LINE
  5
13
330
6
100
AcDbEntity
  8
USP-Geo
100
AcDbLine
 10
1.56249999999996
 20
1.562499999999971
 30
0.0
 11
1.56249999999996
 21
1.421875
 31
0.0
  0
LINE
  5
14
330
6
100
AcDbEntity
  8
USP-Geo
100
AcDbLine
 10
1.562499999999961
 20
0.0
 30
0.0
 11
1.61449999999996
 21
0.0
 31
0.0
  0
LINE
  5
15
330
6
100
AcDbEntity
  8
USP-Geo
100
AcDbLine
 10
1.61449999999996
 20
0.0
 30
0.0
 11
1.61449999999996
 21
0.0212500000000162
 31
0.0
  0
LINE
  5
16
330
6
100
AcDbEntity
  8
USP-Geo
100
AcDbLine
 10
1.562499999999961
 20
0.0212500000000162
 30
0.0
 11
1.61449999999996
 21
0.0212500000000162
 31
0.0
  0
LINE
  5
17
330
6
100
AcDbEntity
  8
USP-Geo
100
AcDbLine
 10
1.614499999999961
 20
0.0212500000000162
 30
0.0
 11
1.614499999999961
 21
0.2756249999999412
 31
0.0
  0
LINE
  5
18
330
6
100
AcDbEntity
  8
USP-Geo
100
AcDbLine
 10
1.56249999999996
 20
0.2756249999999412
 30
0.0
 11
1.614499999999961
 21
0.2756249999999412
 31
0.0
  0
LINE
  5
19
330
6
100
AcDbEntity
  8
USP-Geo
100
AcDbLine
 10
1.61449999999996
 20
0.2756249999999394
 30
0.0
 11
1.61449999999996
 21
1.411875000000003
 31
0.0
  0
LINE
  5
1A
330
6
100
AcDbEntity
  8
USP-Geo
100
AcDbLine
 10
1.56249999999996
 20
1.411875000000009
 30
0.0
 11
1.61449999999996
 21
1.411875000000009
 31
0.0
  0
LINE
  5
1B
330
6
100
AcDbEntity
  8
USP-Geo
100
AcDbLine
 10
1.61449999999996
 20
1.411875000000009
 30
0.0
 11
1.61449999999996
 21
1.421875
 31
0.0
  0
LINE
  5
1C
330
6
100
AcDbEntity
  8
USP-Geo
100
AcDbLine
 10
1.56249999999996
 20
1.421875
 30
0.0
 11
1.61449999999996
 21
1.421875
 31
0.0
  0
LINE
  5
1D
330
6
100
AcDbEntity
  8
USP-Geo
100
AcDbLine
 10
1.61449999999996
 20
1.614499999999972
 30
0.0
 11
1.552499999999948
 21
1.614499999999971
 31
0.0
  0
LINE
  5
1E
330
6
100
AcDbEntity
  8
USP-Geo
100
AcDbLine
 10
1.552499999999948
 20
1.562499999999971
 30
0.0
 11
1.56249999999996
 21
1.562499999999971
 31
0.0
  0
LINE
  5
1F
330
6
100
AcDbEntity
  8
USP-Geo
100
AcDbLine
 10
1.61449999999996
 20
1.421875
 30
0.0
 11
1.61449999999996
 21
1.614499999999971
 31
0.0
  0
LINE
  5
20
330
6
100
AcDbEntity
  8
USP-Geo
100
AcDbLine
 10
0.0150000000000006
 20
1.614499999999971
 30
0.0
 11
0.0
 21
1.614499999999971
 31
0.0
  0
LINE
  5
21
330
6
100
AcDbEntity
  8
USP-Geo
100
AcDbLine
 10
0.1400000000000006
 20
1.614499999999971
 30
0.0
 11
0.0150000000000006
 21
1.614499999999971
 31
0.0
  0
LINE
  5
22
330
6
100
AcDbEntity
  8
USP-Geo
100
AcDbLine
 10
1.297499999999999
 20
1.614499999999971
 30
0.0
 11
0.1400000000000006
 21
1.614499999999971
 31
0.0
  0
LINE
  5
23
330
6
100
AcDbEntity
  8
USP-Geo
100
AcDbLine
 10
1.422499999999999
 20
1.614499999999971
 30
0.0
 11
1.297500000000001
 21
1.614499999999971
 31
0.0
  0
LINE
  5
24
330
6
100
AcDbEntity
  8
USP-Geo
100
AcDbLine
 10
1.437499999999996
 20
1.614499999999971
 30
0.0
 11
1.422499999999999
 21
1.614499999999971
 31
0.0
  0
LINE
  5
25
330
6
100
AcDbEntity
  8
USP-Geo
100
AcDbLine
 10
1.552499999999948
 20
1.614499999999971
 30
0.0
 11
1.437499999999991
 21
1.614499999999971
 31
0.0
  0
LINE
  5
26
330
6
100
AcDbEntity
  8
USP-Geo
100
AcDbLine
 10
1.437499999999992
 20
1.562499999999971
 30
0.0
 11
1.552499999999948
 21
1.562499999999971
 31
0.0
  0
LINE
  5
27
330
6
100
AcDbEntity
  8
USP-Geo
100
AcDbLine
 10
1.437499999999996
 20
1.562499999999971
 30
0.0
 11
1.437499999999996
 21
1.614499999999971
 31
0.0
  0
LINE
  5
28
330
6
100
AcDbEntity
  8
USP-Geo
100
AcDbLine
 10
1.4225
 20
1.562499999999971
 30
0.0
 11
1.4225
 21
1.614499999999971
 31
0.0
  0
LINE
  5
29
330
6
100
AcDbEntity
  8
USP-Geo
100
AcDbLine
 10
1.4225
 20
1.562499999999971
 30
0.0
 11
1.437499999999996
 21
1.562499999999971
 31
0.0
  0
LINE
  5
2A
330
6
100
AcDbEntity
  8
USP-Geo
100
AcDbLine
 10
1.297499999999999
 20
1.562499999999971
 30
0.0
 11
1.297499999999999
 21
1.614499999999971
 31
0.0
  0
LINE
  5
2B
330
6
100
AcDbEntity
  8
USP-Geo
100
AcDbLine
 10
1.4225
 20
1.562499999999971
 30
0.0
 11
1.297500000000001
 21
1.562499999999971
 31
0.0
  0
LINE
  5
2C
330
6
100
AcDbEntity
  8
USP-Geo
100
AcDbLine
 10
0.1400000000000023
 20
1.562499999999971
 30
0.0
 11
0.1400000000000023
 21
1.614499999999971
 31
0.0
  0
LINE
  5
2D
330
6
100
AcDbEntity
  8
USP-Geo
100
AcDbLine
 10
0.1400000000000023
 20
1.562499999999971
 30
0.0
 11
1.297499999999999
 21
1.562499999999971
 31
0.0
  0
LINE
  5
2E
330
6
100
AcDbEntity
  8
USP-Geo
100
AcDbLine
 10
0.0150000000000006
 20
1.562499999999971
 30
0.0
 11
0.0150000000000006
 21
1.614499999999971
 31
0.0
  0
LINE
  5
2F
330
6
100
AcDbEntity
  8
USP-Geo
100
AcDbLine
 10
0.1400000000000023
 20
1.562499999999971
 30
0.0
 11
0.0150000000000032
 21
1.562499999999971
 31
0.0
  0
LINE
  5
30
330
6
100
AcDbEntity
  8
USP-Geo
100
AcDbLine
 10
0.0
 20
1.562499999999971
 30
0.0
 11
0.0
 21
1.614499999999971
 31
0.0
  0
LINE
  5
31
330
6
100
AcDbEntity
  8
USP-Geo
100
AcDbLine
 10
0.0
 20
1.562499999999971
 30
0.0
 11
0.0150000000000006
 21
1.562499999999971
 31
0.0
  0
LINE
  5
32
330
6
100
AcDbEntity
  8
USP-Hid
100
AcDbLine
 10
1.562499999999962
 20
1.206500000000019
 30
0.0
 11
1.614499999999962
 21
1.206500000000019
 31
0.0
  0
LINE
  5
36
330
6
100
AcDbEntity
  8
USP-Hid
100
AcDbLine
 10
1.562499999999962
 20
1.042500000000018
 30
0.0
 11
1.614499999999962
 21
1.042500000000018
 31
0.0
  0
LINE
  5
37
330
6
100
AcDbEntity
  8
USP-Hid
100
AcDbLine
 10
1.56249999999996
 20
0.5507500000000079
 30
0.0
 11
1.61449999999996
 21
0.5507500000000079
 31
0.0
  0
LINE
  5
38
330
6
100
AcDbEntity
  8
USP-Hid
100
AcDbLine
 10
1.56249999999996
 20
0.3867500000000064
 30
0.0
 11
1.61449999999996
 21
0.3867500000000064
 31
0.0
  0
LINE
  5
39
330
6
100
AcDbEntity
  8
USP-Hid
100
AcDbLine
 10
1.562499999999962
 20
1.035100000000014
 30
0.0
 11
1.614499999999961
 21
1.035100000000014
 31
0.0
  0
LINE
  5
3A
330
6
100
AcDbEntity
  8
USP-Hid
100
AcDbLine
 10
1.562499999999962
 20
0.8711000000000126
 30
0.0
 11
1.614499999999961
 21
0.8711000000000126
 31
0.0
  0
LINE
  5
3B
330
6
100
AcDbEntity
  8
USP-Hid
100
AcDbLine
 10
1.56249999999996
 20
0.3950000000000102
 30
0.0
 11
1.614499999999961
 21
0.3950000000000102
 31
0.0
  0
LINE
  5
3C
330
6
100
AcDbEntity
  8
USP-Hid
100
AcDbLine
 10
1.56249999999996
 20
0.2310000000000087
 30
0.0
 11
1.614499999999961
 21
0.2310000000000087
 31
0.0
  0
LINE
  5
3D
330
6
100
AcDbEntity
  8
USP-Hid
100
AcDbLine
 10
1.042500000000003
 20
1.562499999999971
 30
0.0
 11
1.042500000000003
 21
1.614499999999971
 31
0.0
  0
LINE
  5
3E
330
6
100
AcDbEntity
  8
USP-Hid
100
AcDbLine
 10
1.206500000000002
 20
1.562499999999971
 30
0.0
 11
1.206500000000002
 21
1.614499999999971
 31
0.0
  0
LINE
  5
3F
330
6
100
AcDbEntity
  8
USP-Hid
100
AcDbLine
 10
0.2309999999999988
 20
1.562499999999971
 30
0.0
 11
0.2309999999999988
 21
1.614499999999971
 31
0.0
  0
LINE
  5
40
330
6
100
AcDbEntity
  8
USP-Hid
100
AcDbLine
 10
0.3949999999999989
 20
1.562499999999971
 30
0.0
 11
0.3949999999999989
 21
1.614499999999971
 31
0.0
  0
LINE
  5
41
330
6
100
AcDbEntity
  8
USP-Hid
100
AcDbLine
 10
0.386749999999991
 20
1.562499999999971
 30
0.0
 11
0.386749999999991
 21
1.614499999999971
 31
0.0
  0
LINE
  5
42
330
6
100
AcDbEntity
  8
USP-Hid
100
AcDbLine
 10
0.5507499999999912
 20
1.562499999999971
 30
0.0
 11
0.5507499999999912
 21
1.614499999999971
 31
0.0
  0
LINE
  5
43
330
6
100
AcDbEntity
  8
USP-Hid
100
AcDbLine
 10
0.8710999999999886
 20
1.562499999999971
 30
0.0
 11
0.8710999999999886
 21
1.614499999999971
 31
0.0
  0
LINE
  5
44
330
6
100
AcDbEntity
  8
USP-Hid
100
AcDbLine
 10
1.035099999999988
 20
1.562499999999971
 30
0.0
 11
1.035099999999988
 21
1.614499999999971
 31
0.0
  0
LINE
  5
45
330
6
100
AcDbEntity
  8
USP-Hid
100
AcDbLine
 10
1.56249999999996
 20
1.4375
 30
0.0
 11
1.61449999999996
 21
1.4375
 31
0.0
  0
LINE
  5
46
330
6
100
AcDbEntity
  8
USP-Hid
100
AcDbLine
 10
1.562499999999962
 20
1.422500000000013
 30
0.0
 11
1.61449999999996
 21
1.422500000000013
 31
0.0
  0
LINE
  5
47
330
6
100
AcDbEntity
  8
USP-Hid
100
AcDbLine
 10
1.56249999999996
 20
1.297500000000013
 30
0.0
 11
1.614499999999961
 21
1.297500000000013
 31
0.0
  0
LINE
  5
48
330
6
100
AcDbEntity
  8
USP-Hid
100
AcDbLine
 10
1.56249999999996
 20
0.1400000000000148
 30
0.0
 11
1.614499999999961
 21
0.1400000000000148
 31
0.0
  0
LINE
  5
49
330
6
100
AcDbEntity
  8
USP-Hid
100
AcDbLine
 10
1.562499999999962
 20
0.0150000000000148
 30
0.0
 11
1.614499999999961
 21
0.0150000000000148
 31
0.0
  0
LINE
  5
4A
330
6
100
AcDbEntity
  8
USP-Hid
100
AcDbLine
 10
1.56249999999996
 20
0.2856249999999463
 30
0.0
 11
1.61449999999996
 21
0.2856249999999463
 31
0.0
  0
LINE
  5
4B
330
6
100
AcDbEntity
  8
USP-Hid
100
AcDbLine
 10
1.562499999999961
 20
1.427499999999994
 30
0.0
 11
1.61449999999996
 21
1.427499999999994
 31
0.0
  0
LINE
  5
4C
330
6
100
AcDbEntity
  8
USP-Hid
100
AcDbLine
 10
0.2756249999999341
 20
1.562499999999971
 30
0.0
 11
0.2756249999999341
 21
1.614499999999971
 31
0.0
  0
LINE
  5
4D
330
6
100
AcDbEntity
  8
USP-Hid
100
AcDbLine
 10
0.2856249999999338
 20
1.562499999999971
 30
0.0
 11
0.2856249999999338
 21
1.614499999999971
 31
0.0
  0
LINE
  5
4E
330
6
100
AcDbEntity
  8
USP-Hid
100
AcDbLine
 10
1.411874999999992
 20
1.562499999999971
 30
0.0
 11
1.411874999999992
 21
1.614499999999971
 31
0.0
  0
LINE
  5
4F
330
6
100
AcDbEntity
  8
USP-Hid
100
AcDbLine
 10
1.421874999999985
 20
1.562499999999971
 30
0.0
 11
1.421874999999985
 21
1.614499999999971
 31
0.0
  0
LINE
  5
50
330
6
100
AcDbEntity
  8
USP-Hid
100
AcDbLine
 10
1.427499999999981
 20
1.562499999999971
 30
0.0
 11
1.427499999999981
 21
1.614499999999971
 31
0.0
  0
LINE
  5
51
330
6
100
AcDbEntity
  8
USP-Hid
100
AcDbLine
 10
0.021250000000002
 20
1.562499999999971
 30
0.0
 11
0.021250000000002
 21
1.614499999999971
 31
0.0
  0
ENDBLK
  5
54
330
6
100
AcDbEntity
  8
0
100
AcDbBlockEnd
  0
BLOCK
  5
86
330
56
100
AcDbEntity
  8
0
100
AcDbBlockBegin
  2
RT3A_F
 70
     0
 10
0.0
 20
0.0
 30
0.0
  3
RT3A_F
  1

  0
TEXT
  5
57
330
56
100
AcDbEntity
  8
USP-Txt
100
AcDbText
 10
-1.406249999999985
 20
-0.8333617754530422
 30
0.0
 40
0.25
  1
RT3A - FRONT VIEW
 72
     1
 11
0.7187500000000142
 21
-0.8333617754530422
 31
0.0
100
AcDbText
  0
LINE
  5
58
330
56
100
AcDbEntity
  8
USP-Geo
100
AcDbLine
 10
1.562499999999975
 20
0.0
 30
0.0
 11
1.562499999999975
 21
0.125
 31
0.0
  0
LINE
  5
59
330
56
100
AcDbEntity
  8
USP-Geo
100
AcDbLine
 10
1.562499999999976
 20
0.125
 30
0.0
 11
1.562499999999976
 21
1.1325
 31
0.0
  0
LINE
  5
5A
330
56
100
AcDbEntity
  8
USP-Geo
100
AcDbLine
 10
1.562499999999976
 20
1.48499999999994
 30
0.0
 11
1.562499999999976
 21
1.132500000000006
 31
0.0
  0
LINE
  5
5B
330
56
100
AcDbEntity
  8
USP-Geo
100
AcDbLine
 10
1.562499999999975
 20
1.492499999999947
 30
0.0
 11
1.562499999999975
 21
1.484999999999942
 31
0.0
  0
LINE
  5
5C
330
56
100
AcDbEntity
  8
USP-Geo
100
AcDbLine
 10
1.562499999999975
 20
3.007500000000067
 30
0.0
 11
1.562499999999975
 21
1.492499999999941
 31
0.0
  0
LINE
  5
5D
330
56
100
AcDbEntity
  8
USP-Geo
100
AcDbLine
 10
1.562499999999975
 20
0.0
 30
0.0
 11
1.614499999999975
 21
0.0
 31
0.0
  0
LINE
  5
5E
330
56
100
AcDbEntity
  8
USP-Geo
100
AcDbLine
 10
1.614499999999975
 20
0.0
 30
0.0
 11
1.614499999999975
 21
0.125
 31
0.0
  0
LINE
  5
5F
330
56
100
AcDbEntity
  8
USP-Geo
100
AcDbLine
 10
1.562499999999976
 20
0.125
 30
0.0
 11
1.614499999999974
 21
0.125
 31
0.0
  0
LINE
  5
60
330
56
100
AcDbEntity
  8
USP-Geo
100
AcDbLine
 10
1.614499999999974
 20
0.125
 30
0.0
 11
1.614499999999974
 21
1.1325
 31
0.0
  0
LINE
  5
61
330
56
100
AcDbEntity
  8
USP-Geo
100
AcDbLine
 10
1.562499999999976
 20
1.1325
 30
0.0
 11
1.614499999999974
 21
1.1325
 31
0.0
  0
LINE
  5
62
330
56
100
AcDbEntity
  8
USP-Geo
100
AcDbLine
 10
1.614499999999975
 20
1.132500000000005
 30
0.0
 11
1.614499999999975
 21
1.484999999999939
 31
0.0
  0
LINE
  5
63
330
56
100
AcDbEntity
  8
USP-Geo
100
AcDbLine
 10
1.562499999999975
 20
1.484999999999942
 30
0.0
 11
1.614499999999974
 21
1.484999999999942
 31
0.0
  0
LINE
  5
64
330
56
100
AcDbEntity
  8
USP-Geo
100
AcDbLine
 10
1.614499999999975
 20
1.484999999999943
 30
0.0
 11
1.614499999999975
 21
1.492499999999947
 31
0.0
  0
LINE
  5
65
330
56
100
AcDbEntity
  8
USP-Geo
100
AcDbLine
 10
1.562499999999975
 20
1.492499999999942
 30
0.0
 11
1.614499999999975
 21
1.492499999999942
 31
0.0
  0
LINE
  5
66
330
56
100
AcDbEntity
  8
USP-Geo
100
AcDbLine
 10
1.614499999999974
 20
1.492499999999941
 30
0.0
 11
1.614499999999974
 21
3.007500000000067
 31
0.0
  0
LINE
  5
67
330
56
100
AcDbEntity
  8
USP-Geo
100
AcDbLine
 10
1.562499999999975
 20
3.007500000000064
 30
0.0
 11
1.614499999999974
 21
3.007500000000064
 31
0.0
  0
LINE
  5
68
330
56
100
AcDbEntity
  8
USP-Geo
100
AcDbLine
 10
1.552499999999962
 20
3.000000000000085
 30
0.0
 11
1.562499999999975
 21
3.000000000000081
 31
0.0
  0
CIRCLE
  5
69
330
56
100
AcDbEntity
  8
USP-Geo
100
AcDbCircle
 10
1.124500000000017
 20
4.218700000000019
 30
0.0
 40
0.082
  0
CIRCLE
  5
6A
330
56
100
AcDbEntity
  8
USP-Geo
100
AcDbCircle
 10
0.313000000000013
 20
4.054700000000018
 30
0.0
 40
0.082
  0
CIRCLE
  5
6B
330
56
100
AcDbEntity
  8
USP-Geo
100
AcDbCircle
 10
0.4687500000000054
 20
3.515625000000021
 30
0.0
 40
0.082
  0
CIRCLE
  5
6C
330
56
100
AcDbEntity
  8
USP-Geo
100
AcDbCircle
 10
0.9531000000000027
 20
3.70310000000002
 30
0.0
 40
0.082
  0
LINE
  5
6D
330
56
100
AcDbEntity
  8
USP-Geo
100
AcDbLine
 10
0.2756249999999505
 20
3.007500000000089
 30
0.0
 11
0.2856249999999483
 21
3.015000000000085
 31
0.0
  0
LINE
  5
6E
330
56
100
AcDbEntity
  8
USP-Geo
100
AcDbLine
 10
0.2756249999999483
 20
3.007500000000092
 30
0.0
 11
1.411875000000008
 21
1.492499999999958
 31
0.0
  0
LINE
  5
6F
330
56
100
AcDbEntity
  8
USP-Geo
100
AcDbLine
 10
1.421875
 20
1.499999999999957
 30
0.0
 11
1.411875000000005
 21
1.492499999999957
 31
0.0
  0
LINE
  5
70
330
56
100
AcDbEntity
  8
USP-Geo
100
AcDbLine
 10
1.562499999999976
 20
1.499999999999951
 30
0.0
 11
1.421875
 21
1.499999999999953
 31
0.0
  0
ARC
  5
71
330
56
100
AcDbEntity
  8
USP-Geo
100
AcDbCircle
 10
1.552499999999996
 20
3.125000000000085
 30
0.0
 40
0.125
100
AcDbArc
 50
179.9999999999967
 51
269.9999999999846
  0
LINE
  5
72
330
56
100
AcDbEntity
  8
USP-Geo
100
AcDbLine
 10
1.427499999999995
 20
3.367500000000021
 30
0.0
 11
1.427499999999995
 21
3.125000000000092
 31
0.0
  0
LINE
  5
73
330
56
100
AcDbEntity
  8
USP-Geo
100
AcDbLine
 10
1.427499999999995
 20
3.367500000000021
 30
0.0
 11
1.437500000000002
 21
3.367500000000021
 31
0.0
  0
LINE
  5
74
330
56
100
AcDbEntity
  8
USP-Geo
100
AcDbLine
 10
1.437500000000014
 20
4.375000000000028
 30
0.0
 11
1.4375
 21
3.367500000000021
 31
0.0
  0
LINE
  5
75
330
56
100
AcDbEntity
  8
USP-Geo
100
AcDbLine
 10
1.422500000000014
 20
4.375000000000028
 30
0.0
 11
1.43750000000001
 21
4.375000000000028
 31
0.0
  0
LINE
  5
76
330
56
100
AcDbEntity
  8
USP-Geo
100
AcDbLine
 10
1.422500000000014
 20
4.375000000000028
 30
0.0
 11
1.297500000000017
 21
4.500000000000024
 31
0.0
  0
LINE
  5
77
330
56
100
AcDbEntity
  8
USP-Geo
100
AcDbLine
 10
0.1400000000000166
 20
4.500000000000021
 30
0.0
 11
1.297500000000013
 21
4.500000000000021
 31
0.0
  0
LINE
  5
78
330
56
100
AcDbEntity
  8
USP-Geo
100
AcDbLine
 10
0.1400000000000166
 20
4.500000000000021
 30
0.0
 11
0.0150000000000192
 21
4.375000000000023
 31
0.0
  0
LINE
  5
79
330
56
100
AcDbEntity
  8
USP-Geo
100
AcDbLine
 10
0.0000000000000142
 20
4.375000000000028
 30
0.0
 11
0.0150000000000148
 21
4.375000000000028
 31
0.0
  0
LINE
  5
7A
330
56
100
AcDbEntity
  8
USP-Geo
100
AcDbLine
 10
0.0000000000000142
 20
4.375000000000028
 30
0.0
 11
0.0
 21
3.367500000000021
 31
0.0
  0
LINE
  5
7B
330
56
100
AcDbEntity
  8
USP-Geo
100
AcDbLine
 10
0.0000000000000018
 20
3.367500000000021
 30
0.0
 11
0.0212500000000162
 21
3.367500000000021
 31
0.0
  0
LINE
  5
7C
330
56
100
AcDbEntity
  8
USP-Geo
100
AcDbLine
 10
0.285624999999948
 20
3.015000000000085
 30
0.0
 11
0.0212500000000198
 21
3.367500000000016
 31
0.0
  0
LINE
  5
7D
330
56
100
AcDbEntity
  8
USP-Hid
100
AcDbLine
 10
1.562499999999976
 20
0.1993000000000016
 30
0.0
 11
1.614499999999976
 21
0.1993000000000016
 31
0.0
  0
LINE
  5
7E
330
56
100
AcDbEntity
  8
USP-Hid
100
AcDbLine
 10
1.562499999999975
 20
1.066375000000007
 30
0.0
 11
1.614499999999974
 21
1.066375000000007
 31
0.0
  0
LINE
  5
7F
330
56
100
AcDbEntity
  8
USP-Hid
100
AcDbLine
 10
1.562499999999975
 20
0.902375000000007
 30
0.0
 11
1.614499999999974
 21
0.902375000000007
 31
0.0
  0
LINE
  5
80
330
56
100
AcDbEntity
  8
USP-Hid
100
AcDbLine
 10
1.562499999999976
 20
0.8789000000000079
 30
0.0
 11
1.614499999999975
 21
0.8789000000000079
 31
0.0
  0
LINE
  5
81
330
56
100
AcDbEntity
  8
USP-Hid
100
AcDbLine
 10
1.562499999999976
 20
0.7149000000000079
 30
0.0
 11
1.614499999999975
 21
0.7149000000000079
 31
0.0
  0
LINE
  5
82
330
56
100
AcDbEntity
  8
USP-Hid
100
AcDbLine
 10
1.562499999999975
 20
0.5273000000000032
 30
0.0
 11
1.614499999999975
 21
0.5273000000000032
 31
0.0
  0
LINE
  5
83
330
56
100
AcDbEntity
  8
USP-Hid
100
AcDbLine
 10
1.562499999999975
 20
0.3633000000000031
 30
0.0
 11
1.614499999999975
 21
0.3633000000000031
 31
0.0
  0
LINE
  5
84
330
56
100
AcDbEntity
  8
USP-Hid
100
AcDbLine
 10
1.562499999999975
 20
3.000000000000063
 30
0.0
 11
1.614499999999974
 21
3.000000000000063
 31
0.0
  0
LINE
  5
85
330
56
100
AcDbEntity
  8
USP-Hid
100
AcDbLine
 10
1.562499999999976
 20
1.499999999999936
 30
0.0
 11
1.614499999999974
 21
1.499999999999936
 31
0.0
  0
ENDBLK
  5
87
330
56
100
AcDbEntity
  8
0
100
AcDbBlockEnd
  0
BLOCK
  5
BA
330
89
100
AcDbEntity
  8
0
100
AcDbBlockBegin
  2
RT3A_S
 70
     0
 10
0.0
 20
0.0
 30
0.0
  3
RT3A_S
  1

  0
TEXT
  5
8A
330
89
100
AcDbEntity
  8
USP-Txt
100
AcDbText
 10
-1.151083333333355
 20
-0.8333617754530422
 30
0.0
 40
0.25
  1
RT3A - SIDE VIEW
 72
     1
 11
0.8072499999999784
 21
-0.8333617754530422
 31
0.0
100
AcDbText
  0
CIRCLE
  5
8B
330
89
100
AcDbEntity
  8
USP-Geo
100
AcDbCircle
 10
1.124500000000002
 20
0.2813000000000016
 30
0.0
 40
0.082
  0
CIRCLE
  5
8C
330
89
100
AcDbEntity
  8
USP-Geo
100
AcDbCircle
 10
0.4687499999999929
 20
0.9843750000000071
 30
0.0
 40
0.082
  0
CIRCLE
  5
8D
330
89
100
AcDbEntity
  8
USP-Geo
100
AcDbCircle
 10
0.9530999999999973
 20
0.796900000000008
 30
0.0
 40
0.082
  0
CIRCLE
  5
8E
330
89
100
AcDbEntity
  8
USP-Geo
100
AcDbCircle
 10
0.3129999999999953
 20
0.4453000000000032
 30
0.0
 40
0.082
  0
LINE
  5
8F
330
89
100
AcDbEntity
  8
USP-Geo
100
AcDbLine
 10
1.427499999999978
 20
1.1325
 30
0.0
 11
1.437499999999985
 21
1.1325
 31
0.0
  0
LINE
  5
90
330
89
100
AcDbEntity
  8
USP-Geo
100
AcDbLine
 10
1.437499999999984
 20
1.1325
 30
0.0
 11
1.437499999999998
 21
0.125
 31
0.0
  0
LINE
  5
91
330
89
100
AcDbEntity
  8
USP-Geo
100
AcDbLine
 10
1.437499999999998
 20
0.125
 30
0.0
 11
1.422499999999997
 21
0.125
 31
0.0
  0
LINE
  5
92
330
89
100
AcDbEntity
  8
USP-Geo
100
AcDbLine
 10
1.422499999999997
 20
0.125
 30
0.0
 11
1.297500000000002
 21
0.0000000000000044
 31
0.0
  0
LINE
  5
93
330
89
100
AcDbEntity
  8
USP-Geo
100
AcDbLine
 10
1.297499999999999
 20
0.0
 30
0.0
 11
0.1399999999999988
 21
0.0
 31
0.0
  0
LINE
  5
94
330
89
100
AcDbEntity
  8
USP-Geo
100
AcDbLine
 10
0.1399999999999988
 20
0.0
 30
0.0
 11
0.0149999999999997
 21
0.1249999999999991
 31
0.0
  0
LINE
  5
95
330
89
100
AcDbEntity
  8
USP-Geo
100
AcDbLine
 10
0.0150000000000006
 20
0.125
 30
0.0
 11
0.0
 21
0.1250000000000018
 31
0.0
  0
LINE
  5
96
330
89
100
AcDbEntity
  8
USP-Geo
100
AcDbLine
 10
0.0
 20
0.125
 30
0.0
 11
-0.0000000000000142
 21
1.1325
 31
0.0
  0
LINE
  5
97
330
89
100
AcDbEntity
  8
USP-Geo
100
AcDbLine
 10
-0.0000000000000142
 20
1.1325
 30
0.0
 11
0.021250000000002
 21
1.1325
 31
0.0
  0
LINE
  5
98
330
89
100
AcDbEntity
  8
USP-Geo
100
AcDbLine
 10
0.0212500000000038
 20
1.132500000000006
 30
0.0
 11
0.2856249999999338
 21
1.484999999999939
 31
0.0
  0
LINE
  5
99
330
89
100
AcDbEntity
  8
USP-Geo
100
AcDbLine
 10
0.2856249999999312
 20
1.484999999999943
 30
0.0
 11
0.2756249999999287
 21
1.492499999999947
 31
0.0
  0
LINE
  5
9A
330
89
100
AcDbEntity
  8
USP-Geo
100
AcDbLine
 10
0.2756249999999261
 20
1.492499999999941
 30
0.0
 11
1.41187499999999
 21
3.007500000000067
 31
0.0
  0
LINE
  5
9B
330
89
100
AcDbEntity
  8
USP-Geo
100
AcDbLine
 10
1.411874999999993
 20
3.007500000000062
 30
0.0
 11
1.421874999999985
 21
3.000000000000063
 31
0.0
  0
ARC
  5
9C
330
89
100
AcDbEntity
  8
USP-Geo
100
AcDbCircle
 10
1.552499999999978
 20
1.374999999999936
 30
0.0
 40
0.125
100
AcDbArc
 50
90.00000000001463
 51
180.0
  0
LINE
  5
9D
330
89
100
AcDbEntity
  8
USP-Geo
100
AcDbLine
 10
1.427499999999978
 20
1.374999999999936
 30
0.0
 11
1.427499999999978
 21
1.1325
 31
0.0
  0
LINE
  5
9E
330
89
100
AcDbEntity
  8
USP-Geo
100
AcDbLine
 10
1.421874999999985
 20
3.000000000000063
 30
0.0
 11
1.614499999999958
 21
3.000000000000063
 31
0.0
  0
LINE
  5
9F
330
89
100
AcDbEntity
  8
USP-Geo
100
AcDbLine
 10
1.614499999999956
 20
1.492499999999957
 30
0.0
 11
1.614499999999956
 21
1.499999999999957
 31
0.0
  0
LINE
  5
A0
330
89
100
AcDbEntity
  8
USP-Geo
100
AcDbLine
 10
1.614499999999956
 20
4.375000000000028
 30
0.0
 11
1.614499999999956
 21
4.500000000000024
 31
0.0
  0
LINE
  5
A1
330
89
100
AcDbEntity
  8
USP-Geo
100
AcDbLine
 10
1.614499999999956
 20
3.367500000000028
 30
0.0
 11
1.614499999999956
 21
4.375000000000028
 31
0.0
  0
LINE
  5
A2
330
89
100
AcDbEntity
  8
USP-Geo
100
AcDbLine
 10
1.614499999999955
 20
3.125000000000085
 30
0.0
 11
1.614499999999955
 21
3.367500000000021
 31
0.0
  0
LINE
  5
A3
330
89
100
AcDbEntity
  8
USP-Geo
100
AcDbLine
 10
1.614499999999955
 20
3.000000000000085
 30
0.0
 11
1.614499999999955
 21
3.125000000000085
 31
0.0
  0
LINE
  5
A4
330
89
100
AcDbEntity
  8
USP-Geo
100
AcDbLine
 10
1.614499999999956
 20
1.49999999999995
 30
0.0
 11
1.614499999999956
 21
3.000000000000063
 31
0.0
  0
LINE
  5
A5
330
89
100
AcDbEntity
  8
USP-Geo
100
AcDbLine
 10
1.562499999999957
 20
1.492499999999957
 30
0.0
 11
1.614499999999956
 21
1.492499999999957
 31
0.0
  0
LINE
  5
A6
330
89
100
AcDbEntity
  8
USP-Geo
100
AcDbLine
 10
1.562499999999957
 20
1.499999999999957
 30
0.0
 11
1.562499999999957
 21
1.492499999999957
 31
0.0
  0
LINE
  5
A7
330
89
100
AcDbEntity
  8
USP-Geo
100
AcDbLine
 10
1.552499999999946
 20
1.49999999999995
 30
0.0
 11
1.614499999999955
 21
1.49999999999995
 31
0.0
  0
LINE
  5
A8
330
89
100
AcDbEntity
  8
USP-Geo
100
AcDbLine
 10
1.562499999999955
 20
3.125000000000092
 30
0.0
 11
1.562499999999955
 21
3.000000000000085
 31
0.0
  0
LINE
  5
A9
330
89
100
AcDbEntity
  8
USP-Geo
100
AcDbLine
 10
1.562499999999955
 20
3.367500000000021
 30
0.0
 11
1.562499999999955
 21
3.125000000000092
 31
0.0
  0
LINE
  5
AA
330
89
100
AcDbEntity
  8
USP-Geo
100
AcDbLine
 10
1.562499999999955
 20
3.367500000000021
 30
0.0
 11
1.614499999999956
 21
3.367500000000021
 31
0.0
  0
LINE
  5
AB
330
89
100
AcDbEntity
  8
USP-Geo
100
AcDbLine
 10
1.562499999999955
 20
4.375000000000028
 30
0.0
 11
1.614499999999956
 21
4.375000000000028
 31
0.0
  0
LINE
  5
AC
330
89
100
AcDbEntity
  8
USP-Geo
100
AcDbLine
 10
1.562499999999955
 20
4.375000000000028
 30
0.0
 11
1.562499999999955
 21
3.367500000000021
 31
0.0
  0
LINE
  5
AD
330
89
100
AcDbEntity
  8
USP-Geo
100
AcDbLine
 10
1.562499999999957
 20
4.500000000000021
 30
0.0
 11
1.614499999999956
 21
4.500000000000021
 31
0.0
  0
LINE
  5
AE
330
89
100
AcDbEntity
  8
USP-Geo
100
AcDbLine
 10
1.562499999999959
 20
4.375000000000028
 30
0.0
 11
1.562499999999959
 21
4.500000000000024
 31
0.0
  0
LINE
  5
AF
330
89
100
AcDbEntity
  8
USP-Hid
100
AcDbLine
 10
1.562499999999957
 20
4.300700000000019
 30
0.0
 11
1.614499999999956
 21
4.300700000000019
 31
0.0
  0
LINE
  5
B0
330
89
100
AcDbEntity
  8
USP-Hid
100
AcDbLine
 10
1.562499999999957
 20
4.136700000000019
 30
0.0
 11
1.614499999999956
 21
4.136700000000019
 31
0.0
  0
LINE
  5
B1
330
89
100
AcDbEntity
  8
USP-Hid
100
AcDbLine
 10
1.562499999999955
 20
3.972700000000018
 30
0.0
 11
1.614499999999956
 21
3.972700000000018
 31
0.0
  0
LINE
  5
B2
330
89
100
AcDbEntity
  8
USP-Hid
100
AcDbLine
 10
1.562499999999959
 20
3.597625000000021
 30
0.0
 11
1.614499999999955
 21
3.597625000000021
 31
0.0
  0
LINE
  5
B3
330
89
100
AcDbEntity
  8
USP-Hid
100
AcDbLine
 10
1.562499999999957
 20
3.433625000000021
 30
0.0
 11
1.614499999999956
 21
3.433625000000021
 31
0.0
  0
LINE
  5
B4
330
89
100
AcDbEntity
  8
USP-Hid
100
AcDbLine
 10
1.562499999999955
 20
3.78510000000002
 30
0.0
 11
1.614499999999955
 21
3.78510000000002
 31
0.0
  0
LINE
  5
B5
330
89
100
AcDbEntity
  8
USP-Hid
100
AcDbLine
 10
1.562499999999955
 20
3.62110000000002
 30
0.0
 11
1.614499999999955
 21
3.62110000000002
 31
0.0
  0
LINE
  5
B6
330
89
100
AcDbEntity
  8
USP-Hid
100
AcDbLine
 10
1.562499999999957
 20
1.499999999999936
 30
0.0
 11
1.562499999999957
 21
3.000000000000063
 31
0.0
  0
LINE
  5
B7
330
89
100
AcDbEntity
  8
USP-Hid
100
AcDbLine
 10
1.562499999999957
 20
3.007500000000092
 30
0.0
 11
1.614499999999955
 21
3.007500000000092
 31
0.0
  0
LINE
  5
B8
330
89
100
AcDbEntity
  8
USP-Hid
100
AcDbLine
 10
1.562499999999955
 20
3.015000000000085
 30
0.0
 11
1.614499999999956
 21
3.015000000000085
 31
0.0
  0
LINE
  5
B9
330
89
100
AcDbEntity
  8
USP-Geo
100
AcDbLine
 10
1.562499999999957
 20
1.492499999999957
 30
-2.748333443396635
 11
1.562499999999957
 21
3.000000000000063
 31
-2.597708443396665
  0
ENDBLK
  5
BB
330
89
100
AcDbEntity
  8
0
100
AcDbBlockEnd
  0
ENDSEC
  0
SECTION
  2
ENTITIES
  0
INSERT
  5
3
330
2
100
AcDbEntity
  8
USP
100
AcDbBlockReference
  2
RT3A_T
 10
1.227452407623516
 20
8.459778818117328
 30
0.0
  0
INSERT
  5
55
330
2
100
AcDbEntity
  8
USP
100
AcDbBlockReference
  2
RT3A_F
 10
1.227452407623502
 20
0.8344657866770504
 30
0.0
  0
INSERT
  5
88
330
2
100
AcDbEntity
  8
USP
100
AcDbBlockReference
  2
RT3A_S
 10
6.123756635920898
 20
0.8344657866770504
 30
0.0
  0
ENDSEC
  0
SECTION
  2
OBJECTS
  0
DICTIONARY
  5
D4
330
0
100
AcDbDictionary
281
     1
  3
ACAD_COLOR
350
DF
  3
ACAD_GROUP
350
D2
  3
ACAD_LAYOUT
350
E0
  3
ACAD_MATERIAL
350
DE
  3
ACAD_MLINESTYLE
350
D3
  3
ACAD_PLOTSETTINGS
350
E1
  3
ACAD_PLOTSTYLENAME
350
DC
  3
ACDBHEADERROUNDTRIPXREC
350
EA
  3
AcDbVariableDictionary
350
E6
  0
DICTIONARY
  5
BC
330
2
100
AcDbDictionary
280
     1
281
     1
  3
ACAD_LAYOUTSELFREF
360
BD
  0
DICTIONARY
  5
C1
330
C0
100
AcDbDictionary
280
     1
281
     1
  3
ACAD_LAYOUTSELFREF
360
C2
  0
DICTIONARY
  5
DF
102
{ACAD_REACTORS
330
D4
102
}
330
D4
100
AcDbDictionary
281
     1
  0
DICTIONARY
  5
D2
102
{ACAD_REACTORS
330
D4
102
}
330
D4
100
AcDbDictionary
281
     1
  0
DICTIONARY
  5
E0
102
{ACAD_REACTORS
330
D4
102
}
330
D4
100
AcDbDictionary
281
     1
  3
Layout1
350
E3
  3
Model
350
E2
  0
DICTIONARY
  5
DE
102
{ACAD_REACTORS
330
D4
102
}
330
D4
100
AcDbDictionary
281
     1
  0
DICTIONARY
  5
D3
102
{ACAD_REACTORS
330
D4
102
}
330
D4
100
AcDbDictionary
281
     1
  3
STANDARD
350
D7
  0
DICTIONARY
  5
E1
102
{ACAD_REACTORS
330
D4
102
}
330
D4
100
AcDbDictionary
281
     1
  0
ACDBDICTIONARYWDFLT
  5
DC
102
{ACAD_REACTORS
330
D4
102
}
330
D4
100
AcDbDictionary
281
     1
  3
Normal
350
DD
100
AcDbDictionaryWithDefault
340
DD
  0
DICTIONARY
  5
EA
102
{ACAD_REACTORS
330
D4
102
}
330
D4
100
AcDbDictionary
281
     1
  3
COLORDICT
350
EC
  3
MATERIALDICT
350
EB
  0
DICTIONARY
  5
E6
102
{ACAD_REACTORS
330
D4
102
}
330
D4
100
AcDbDictionary
281
     1
  3
DIMASSOC
350
E7
  3
PROJECTNAME
350
E8
  0
XRECORD
  5
BD
102
{ACAD_REACTORS
330
BC
102
}
330
BC
100
AcDbXrecord
280
     1
340
18
  0
XRECORD
  5
C2
102
{ACAD_REACTORS
330
C1
102
}
330
C1
100
AcDbXrecord
280
     1
340
15
  0
LAYOUT
  5
E3
102
{ACAD_XDICTIONARY
360
EF
102
}
102
{ACAD_REACTORS
330
E0
102
}
330
E0
100
AcDbPlotSettings
  1

  2
\\mitk-us-mtg-n28\Office Canon IR C2550
  4

  6

 40
0.0
 41
0.0
 42
0.0
 43
0.0
 44
0.0
 45
0.0
 46
0.0
 47
0.0
 48
0.0
 49
0.0
140
0.0
141
0.0
142
1.0
143
1.0
 70
   688
 72
     0
 73
     0
 74
     5
  7

 75
    16
147
1.0
148
0.0
149
0.0
100
AcDbLayout
  1
Layout1
 70
     0
 71
     1
 10
0.0
 20
0.0
 11
12.0
 21
9.0
 12
0.0
 22
0.0
 32
0.0
 14
1.000000000000000E+20
 24
1.000000000000000E+20
 34
1.000000000000000E+20
 15
-1.000000000000000E+20
 25
-1.000000000000000E+20
 35
-1.000000000000000E+20
146
0.0
 13
0.0
 23
0.0
 33
0.0
 16
1.0
 26
0.0
 36
0.0
 17
0.0
 27
1.0
 37
0.0
 76
     0
330
C0
  0
LAYOUT
  5
E2
102
{ACAD_XDICTIONARY
360
ED
102
}
102
{ACAD_REACTORS
330
E0
102
}
330
E0
100
AcDbPlotSettings
  1

  2
\\mitk-us-mtg-n28\Office Canon IR C2550
  4

  6

 40
0.0
 41
0.0
 42
0.0
 43
0.0
 44
0.0
 45
0.0
 46
0.0
 47
0.0
 48
0.0
 49
0.0
140
0.0
141
0.0
142
1.0
143
1.0
 70
  1712
 72
     0
 73
     0
 74
     0
  7

 75
     0
147
1.0
148
0.0
149
0.0
100
AcDbLayout
  1
Model
 70
     1
 71
     0
 10
0.0
 20
0.0
 11
12.0
 21
9.0
 12
0.0
 22
0.0
 32
0.0
 14
0.0
 24
0.0
 34
0.0
 15
0.0
 25
0.0
 35
0.0
146
0.0
 13
0.0
 23
0.0
 33
0.0
 16
1.0
 26
0.0
 36
0.0
 17
0.0
 27
1.0
 37
0.0
 76
     0
330
2
  0
MLINESTYLE
  5
D7
102
{ACAD_REACTORS
330
D3
102
}
330
D3
100
AcDbMlineStyle
  2
STANDARD
 70
     0
  3

 62
     0
 51
90.0
 52
90.0
 71
     2
 49
0.5
 62
   256
  6
BYLAYER
 49
-0.5
 62
   256
  6
BYLAYER
  0
ACDBPLACEHOLDER
  5
DD
102
{ACAD_REACTORS
330
DC
102
}
330
DC
  0
XRECORD
  5
EC
102
{ACAD_REACTORS
330
EA
102
}
330
EA
100
AcDbXrecord
280
     1
340
DF
  0
XRECORD
  5
EB
102
{ACAD_REACTORS
330
EA
102
}
330
EA
100
AcDbXrecord
280
     1
340
DE
  0
DICTIONARYVAR
  5
E7
102
{ACAD_REACTORS
330
E6
102
}
330
E6
100
DictionaryVariables
280
     0
  1
1
  0
DICTIONARYVAR
  5
E8
102
{ACAD_REACTORS
330
E6
102
}
330
E6
100
DictionaryVariables
280
     0
  1

  0
DICTIONARY
  5
EF
330
E3
100
AcDbDictionary
280
     1
281
     1
  3
ACAD_XREC_ROUNDTRIP
360
F0
  0
DICTIONARY
  5
ED
330
E2
100
AcDbDictionary
280
     1
281
     1
  3
ACAD_XREC_ROUNDTRIP
360
EE
  0
XRECORD
  5
F0
102
{ACAD_REACTORS
330
EF
102
}
330
EF
100
AcDbXrecord
280
     1
102
SHADEPLOT
 70
     0
102
SHADEPLOTRESLEVEL
 70
     2
102
SHADEPLOTCUSTOMDPI
 70
   300
  0
XRECORD
  5
EE
102
{ACAD_REACTORS
330
ED
102
}
330
ED
100
AcDbXrecord
280
     1
102
SHADEPLOT
 70
     0
102
SHADEPLOTRESLEVEL
 70
     2
102
SHADEPLOTCUSTOMDPI
 70
   300
  0
ENDSEC
  0
EOF