0
SECTION
  2
HEADER
  9
$ACADVER
  1
AC1018
  9
$ACADMAINTVER
 70
     0
  9
$DWGCODEPAGE
  3
ANSI_1252
  9
$INSBASE
 10
0.0
 20
0.0
 30
0.0
  9
$EXTMIN
 10
-12.36331665627429
 20
-7.672679314327049
 30
0.0
  9
$EXTMAX
 10
20.35224532965965
 20
21.29190230604738
 30
0.0
  9
$LIMMIN
 10
-100.0
 20
-100.0
  9
$LIMMAX
 10
100.0
 20
100.0
  9
$ORTHOMODE
 70
     0
  9
$REGENMODE
 70
     1
  9
$FILLMODE
 70
     1
  9
$QTEXTMODE
 70
     0
  9
$MIRRTEXT
 70
     1
  9
$LTSCALE
 40
1.0
  9
$ATTMODE
 70
     1
  9
$TEXTSIZE
 40
0.1377952755905512
  9
$TRACEWID
 40
0.05
  9
$TEXTSTYLE
  7
Standard
  9
$CLAYER
  8
0
  9
$CELTYPE
  6
ByLayer
  9
$CECOLOR
 62
   256
  9
$CELTSCALE
 40
1.0
  9
$DISPSILH
 70
     0
  9
$DIMSCALE
 40
1.0
  9
$DIMASZ
 40
0.13
  9
$DIMEXO
 40
0.0393700787401575
  9
$DIMDLI
 40
0.38
  9
$DIMRND
 40
0.0
  9
$DIMDLE
 40
0.0
  9
$DIMEXE
 40
0.0393700787401575
  9
$DIMTP
 40
0.0
  9
$DIMTM
 40
0.0
  9
$DIMTXT
 40
0.1377952755905512
  9
$DIMCEN
 40
0.09
  9
$DIMTSZ
 40
0.0
  9
$DIMTOL
 70
     0
  9
$DIMLIM
 70
     0
  9
$DIMTIH
 70
     1
  9
$DIMTOH
 70
     1
  9
$DIMSE1
 70
     0
  9
$DIMSE2
 70
     0
  9
$DIMTAD
 70
     1
  9
$DIMZIN
 70
     0
  9
$DIMBLK
  1

  9
$DIMASO
 70
     1
  9
$DIMSHO
 70
     1
  9
$DIMPOST
  1

  9
$DIMAPOST
  1

  9
$DIMALT
 70
     0
  9
$DIMALTD
 70
     2
  9
$DIMALTF
 40
25.4
  9
$DIMLFAC
 40
1.0
  9
$DIMTOFL
 70
     0
  9
$DIMTVP
 40
0.0
  9
$DIMTIX
 70
     0
  9
$DIMSOXD
 70
     0
  9
$DIMSAH
 70
     0
  9
$DIMBLK1
  1

  9
$DIMBLK2
  1

  9
$DIMSTYLE
  2
Standard
  9
$DIMCLRD
 70
     0
  9
$DIMCLRE
 70
     0
  9
$DIMCLRT
 70
     0
  9
$DIMTFAC
 40
1.0
  9
$DIMGAP
 40
0.06
  9
$DIMJUST
 70
     0
  9
$DIMSD1
 70
     0
  9
$DIMSD2
 70
     0
  9
$DIMTOLJ
 70
     1
  9
$DIMTZIN
 70
     0
  9
$DIMALTZ
 70
     0
  9
$DIMALTTZ
 70
     0
  9
$DIMUPT
 70
     0
  9
$DIMDEC
 70
     2
  9
$DIMTDEC
 70
     2
  9
$DIMALTU
 70
     2
  9
$DIMALTTD
 70
     2
  9
$DIMTXSTY
  7
Standard
  9
$DIMAUNIT
 70
     0
  9
$DIMADEC
 70
     2
  9
$DIMALTRND
 40
0.0
  9
$DIMAZIN
 70
     0
  9
$DIMDSEP
 70
    46
  9
$DIMATFIT
 70
     3
  9
$DIMFRAC
 70
     0
  9
$DIMLDRBLK
  1

  9
$DIMLUNIT
 70
     2
  9
$DIMLWD
 70
    -2
  9
$DIMLWE
 70
    -2
  9
$DIMTMOVE
 70
     0
  9
$LUNITS
 70
     2
  9
$LUPREC
 70
     2
  9
$SKETCHINC
 40
0.1
  9
$FILLETRAD
 40
0.5
  9
$AUNITS
 70
     0
  9
$AUPREC
 70
     2
  9
$MENU
  1
.
  9
$ELEVATION
 40
0.0
  9
$PELEVATION
 40
0.0
  9
$THICKNESS
 40
0.0
  9
$LIMCHECK
 70
     0
  9
$CHAMFERA
 40
0.0
  9
$CHAMFERB
 40
0.0
  9
$CHAMFERC
 40
0.0
  9
$CHAMFERD
 40
0.0
  9
$SKPOLY
 70
     0
  9
$TDCREATE
 40
2457060.554471759
  9
$TDUCREATE
 40
2457060.804471759
  9
$TDUPDATE
 40
2457064.335674364
  9
$TDUUPDATE
 40
2457064.585674364
  9
$TDINDWG
 40
0.0003885995
  9
$TDUSRTIMER
 40
0.0003885995
  9
$USRTIMER
 70
     1
  9
$ANGBASE
 50
0.0
  9
$ANGDIR
 70
     0
  9
$PDMODE
 70
     0
  9
$PDSIZE
 40
-1.0
  9
$PLINEWID
 40
0.0
  9
$SPLFRAME
 70
     0
  9
$SPLINETYPE
 70
     6
  9
$SPLINESEGS
 70
     8
  9
$HANDSEED
  5
341
  9
$SURFTAB1
 70
     6
  9
$SURFTAB2
 70
     6
  9
$SURFTYPE
 70
     6
  9
$SURFU
 70
     6
  9
$SURFV
 70
     6
  9
$UCSBASE
  2

  9
$UCSNAME
  2

  9
$UCSORG
 10
0.0
 20
0.0
 30
0.0
  9
$UCSXDIR
 10
1.0
 20
0.0
 30
0.0
  9
$UCSYDIR
 10
0.0
 20
1.0
 30
0.0
  9
$UCSORTHOREF
  2

  9
$UCSORTHOVIEW
 70
     0
  9
$UCSORGTOP
 10
0.0
 20
0.0
 30
0.0
  9
$UCSORGBOTTOM
 10
0.0
 20
0.0
 30
0.0
  9
$UCSORGLEFT
 10
0.0
 20
0.0
 30
0.0
  9
$UCSORGRIGHT
 10
0.0
 20
0.0
 30
0.0
  9
$UCSORGFRONT
 10
0.0
 20
0.0
 30
0.0
  9
$UCSORGBACK
 10
0.0
 20
0.0
 30
0.0
  9
$PUCSBASE
  2

  9
$PUCSNAME
  2

  9
$PUCSORG
 10
0.0
 20
0.0
 30
0.0
  9
$PUCSXDIR
 10
1.0
 20
0.0
 30
0.0
  9
$PUCSYDIR
 10
0.0
 20
1.0
 30
0.0
  9
$PUCSORTHOREF
  2

  9
$PUCSORTHOVIEW
 70
     0
  9
$PUCSORGTOP
 10
0.0
 20
0.0
 30
0.0
  9
$PUCSORGBOTTOM
 10
0.0
 20
0.0
 30
0.0
  9
$PUCSORGLEFT
 10
0.0
 20
0.0
 30
0.0
  9
$PUCSORGRIGHT
 10
0.0
 20
0.0
 30
0.0
  9
$PUCSORGFRONT
 10
0.0
 20
0.0
 30
0.0
  9
$PUCSORGBACK
 10
0.0
 20
0.0
 30
0.0
  9
$USERI1
 70
     0
  9
$USERI2
 70
     0
  9
$USERI3
 70
     0
  9
$USERI4
 70
     0
  9
$USERI5
 70
     0
  9
$USERR1
 40
0.0
  9
$USERR2
 40
0.0
  9
$USERR3
 40
0.0
  9
$USERR4
 40
0.0
  9
$USERR5
 40
0.0
  9
$WORLDVIEW
 70
     1
  9
$SHADEDGE
 70
     3
  9
$SHADEDIF
 70
    70
  9
$TILEMODE
 70
     1
  9
$MAXACTVP
 70
    64
  9
$PINSBASE
 10
0.0
 20
0.0
 30
0.0
  9
$PLIMCHECK
 70
     0
  9
$PEXTMIN
 10
1.000000000000000E+20
 20
1.000000000000000E+20
 30
1.000000000000000E+20
  9
$PEXTMAX
 10
-1.000000000000000E+20
 20
-1.000000000000000E+20
 30
-1.000000000000000E+20
  9
$PLIMMIN
 10
0.0
 20
0.0
  9
$PLIMMAX
 10
12.0
 20
9.0
  9
$UNITMODE
 70
     0
  9
$VISRETAIN
 70
     1
  9
$PLINEGEN
 70
     0
  9
$PSLTSCALE
 70
     1
  9
$TREEDEPTH
 70
  3020
  9
$CMLSTYLE
  2
Standard
  9
$CMLJUST
 70
     0
  9
$CMLSCALE
 40
1.0
  9
$PROXYGRAPHICS
 70
     1
  9
$MEASUREMENT
 70
     0
  9
$CELWEIGHT
370
    -1
  9
$ENDCAPS
280
     0
  9
$JOINSTYLE
280
     0
  9
$LWDISPLAY
290
     1
  9
$INSUNITS
 70
     1
  9
$HYPERLINKBASE
  1

  9
$STYLESHEET
  1

  9
$XEDIT
290
     1
  9
$CEPSNTYPE
380
     0
  9
$PSTYLEMODE
290
     1
  9
$FINGERPRINTGUID
  2
{2225A51F-1EFF-44AF-BFB2-3750BE060003}
  9
$VERSIONGUID
  2
{5803C186-1A00-4B3E-97BA-1740DE1BFF7A}
  9
$EXTNAMES
290
     1
  9
$PSVPSCALE
 40
0.0
  9
$OLESTARTUP
290
     0
  9
$SORTENTS
280
   127
  9
$INDEXCTL
280
     0
  9
$HIDETEXT
280
     0
  9
$XCLIPFRAME
290
     0
  9
$HALOGAP
280
     0
  9
$OBSCOLOR
 70
   257
  9
$OBSLTYPE
280
     0
  9
$INTERSECTIONDISPLAY
280
     0
  9
$INTERSECTIONCOLOR
 70
   257
  9
$DIMASSOC
280
     1
  9
$PROJECTNAME
  1

  0
ENDSEC
  0
SECTION
  2
CLASSES
  0
CLASS
  1
ACDBDICTIONARYWDFLT
  2
AcDbDictionaryWithDefault
  3
ObjectDBX Classes
 90
        0
 91
        1
280
     0
281
     0
  0
CLASS
  1
VISUALSTYLE
  2
AcDbVisualStyle
  3
ObjectDBX Classes
 90
     4095
 91
        0
280
     0
281
     0
  0
CLASS
  1
MATERIAL
  2
AcDbMaterial
  3
ObjectDBX Classes
 90
        0
 91
        0
280
     0
281
     0
  0
CLASS
  1
SCALE
  2
AcDbScale
  3
ObjectDBX Classes
 90
     1153
 91
       33
280
     0
281
     0
  0
CLASS
  1
SUN
  2
AcDbSun
  3
SCENEOE
 90
     1153
 91
        1
280
     0
281
     0
  0
CLASS
  1
ACDBPLACEHOLDER
  2
AcDbPlaceHolder
  3
ObjectDBX Classes
 90
        0
 91
        1
280
     0
281
     0
  0
CLASS
  1
LAYOUT
  2
AcDbLayout
  3
ObjectDBX Classes
 90
        0
 91
        3
280
     0
281
     0
  0
ENDSEC
  0
SECTION
  2
TABLES
  0
TABLE
  2
VPORT
  5
8
330
0
100
AcDbSymbolTable
 70
     3
  0
VPORT
  5
340
330
8
100
AcDbSymbolTableRecord
100
AcDbViewportTableRecord
  2
*Active
 70
     0
 10
0.0
 20
0.0
 11
1.0
 21
1.0
 12
1.728906583783697
 22
4.904552530918529
 13
0.0
 23
0.0
 14
0.5
 24
0.5
 15
0.5
 25
0.5
 16
0.0
 26
0.0
 36
1.0
 17
0.0
 27
0.0
 37
0.0
 40
53.40371625656472
 41
2.240490797546012
 42
50.0
 43
0.0
 44
0.0
 50
0.0
 51
0.0
 71
     0
 72
  2000
 73
     1
 74
     3
 75
     0
 76
     0
 77
     0
 78
     0
281
     0
 65
     1
110
0.0
120
0.0
130
0.0
111
1.0
121
0.0
131
0.0
112
0.0
122
1.0
132
0.0
 79
     0
146
0.0
  0
ENDTAB
  0
TABLE
  2
LTYPE
  5
5
330
0
100
AcDbSymbolTable
 70
     6
  0
LTYPE
  5
14
330
5
100
AcDbSymbolTableRecord
100
AcDbLinetypeTableRecord
  2
ByBlock
 70
     0
  3

 72
    65
 73
     0
 40
0.0
  0
LTYPE
  5
15
330
5
100
AcDbSymbolTableRecord
100
AcDbLinetypeTableRecord
  2
ByLayer
 70
     0
  3

 72
    65
 73
     0
 40
0.0
  0
LTYPE
  5
16
330
5
100
AcDbSymbolTableRecord
100
AcDbLinetypeTableRecord
  2
Continuous
 70
     0
  3
Solid line
 72
    65
 73
     0
 40
0.0
  0
LTYPE
  5
6A
330
5
100
AcDbSymbolTableRecord
100
AcDbLinetypeTableRecord
  2
HIDDEN
 70
     0
  3
Hidden __ __ __ __ __ __ __ __ __ __ __ __ __ __
 72
    65
 73
     2
 40
0.075
 49
0.05
 74
     0
 49
-0.025
 74
     0
  0
LTYPE
  5
6B
330
5
100
AcDbSymbolTableRecord
100
AcDbLinetypeTableRecord
  2
PHANTOM
 70
     0
  3
Phantom ______  __  __  ______  __  __  ______
 72
    65
 73
     6
 40
0.5
 49
0.25
 74
     0
 49
-0.05
 74
     0
 49
0.05
 74
     0
 49
-0.05
 74
     0
 49
0.05
 74
     0
 49
-0.05
 74
     0
  0
LTYPE
  5
6C
330
5
100
AcDbSymbolTableRecord
100
AcDbLinetypeTableRecord
  2
CENTER
 70
     0
  3
Center ____ _ ____ _ ____ _ ____ _ ____ _ ____
 72
    65
 73
     4
 40
0.4
 49
0.25
 74
     0
 49
-0.05
 74
     0
 49
0.05
 74
     0
 49
-0.05
 74
     0
  0
LTYPE
  5
6D
330
5
100
AcDbSymbolTableRecord
100
AcDbLinetypeTableRecord
  2
CENTERX2
 70
     0
  3
Center (2x) ________  __  ________  __  _____
 72
    65
 73
     4
 40
0.8
 49
0.5
 74
     0
 49
-0.1
 74
     0
 49
0.1
 74
     0
 49
-0.1
 74
     0
  0
LTYPE
  5
6E
330
5
100
AcDbSymbolTableRecord
100
AcDbLinetypeTableRecord
  2
DOT2
 70
     0
  3
Dot (.5x) ........................................
 72
    65
 73
     2
 40
0.025
 49
0.0
 74
     0
 49
-0.025
 74
     0
  0
ENDTAB
  0
TABLE
  2
LAYER
  5
2
330
0
100
AcDbSymbolTable
 70
     1
  0
LAYER
  5
10
330
2
100
AcDbSymbolTableRecord
100
AcDbLayerTableRecord
  2
0
 70
     0
 62
     7
  6
Continuous
370
    -3
390
F
  0
ENDTAB
  0
TABLE
  2
STYLE
  5
3
330
0
100
AcDbSymbolTable
 70
     1
  0
STYLE
  5
11
330
3
100
AcDbSymbolTableRecord
100
AcDbTextStyleTableRecord
  2
Standard
 70
     0
 40
0.0
 41
1.0
 50
0.0
 71
     0
 42
0.1377952755905512
  3
txt
  4

  0
ENDTAB
  0
TABLE
  2
VIEW
  5
6
330
0
100
AcDbSymbolTable
 70
     0
  0
ENDTAB
  0
TABLE
  2
UCS
  5
7
330
0
100
AcDbSymbolTable
 70
     0
  0
ENDTAB
  0
TABLE
  2
APPID
  5
9
330
0
100
AcDbSymbolTable
 70
     1
  0
APPID
  5
12
330
9
100
AcDbSymbolTableRecord
100
AcDbRegAppTableRecord
  2
ACAD
 70
     0
  0
ENDTAB
  0
TABLE
  2
DIMSTYLE
  5
A
330
0
100
AcDbSymbolTable
 70
     1
100
AcDbDimStyleTable
 71
     0
  0
DIMSTYLE
105
27
330
A
100
AcDbSymbolTableRecord
100
AcDbDimStyleTableRecord
  2
Standard
 70
     0
340
11
  0
ENDTAB
  0
TABLE
  2
BLOCK_RECORD
  5
1
330
0
100
AcDbSymbolTable
 70
     1
  0
BLOCK_RECORD
  5
1F
330
1
100
AcDbSymbolTableRecord
100
AcDbBlockTableRecord
  2
*Model_Space
340
22
  0
BLOCK_RECORD
  5
1B
330
1
100
AcDbSymbolTableRecord
100
AcDbBlockTableRecord
  2
*Paper_Space
340
1E
  0
BLOCK_RECORD
  5
23
330
1
100
AcDbSymbolTableRecord
100
AcDbBlockTableRecord
  2
*Paper_Space0
340
26
  0
ENDTAB
  0
ENDSEC
  0
SECTION
  2
BLOCKS
  0
BLOCK
  5
20
330
1F
100
AcDbEntity
  8
0
100
AcDbBlockBegin
  2
*Model_Space
 70
     0
 10
0.0
 20
0.0
 30
0.0
  3
*Model_Space
  1

  0
ENDBLK
  5
21
330
1F
100
AcDbEntity
  8
0
100
AcDbBlockEnd
  0
BLOCK
  5
1C
330
1B
100
AcDbEntity
 67
     1
  8
0
100
AcDbBlockBegin
  2
*Paper_Space
 70
     0
 10
0.0
 20
0.0
 30
0.0
  3
*Paper_Space
  1

  0
ENDBLK
  5
1D
330
1B
100
AcDbEntity
 67
     1
  8
0
100
AcDbBlockEnd
  0
BLOCK
  5
24
330
23
100
AcDbEntity
  8
0
100
AcDbBlockBegin
  2
*Paper_Space0
 70
     0
 10
0.0
 20
0.0
 30
0.0
  3
*Paper_Space0
  1

  0
ENDBLK
  5
25
330
23
100
AcDbEntity
  8
0
100
AcDbBlockEnd
  0
ENDSEC
  0
SECTION
  2
ENTITIES
  0
LINE
  5
6F
330
1F
100
AcDbEntity
  8
0
  6
Continuous
 62
     7
370
     5
100
AcDbLine
 10
10.32334446618031
 20
20.91818731174534
 30
0.0
 11
8.996717137555284
 21
21.27873619348049
 31
0.0
  0
LINE
  5
70
330
1F
100
AcDbEntity
  8
0
  6
Continuous
 62
     7
370
     5
100
AcDbLine
 10
3.474590105259927
 20
-7.303291516327049
 30
0.0
 11
4.80121743388496
 21
-7.663840398062196
 31
0.0
  0
LINE
  5
71
330
1F
100
AcDbEntity
  8
0
  6
Continuous
 62
     7
370
     5
100
AcDbLine
 10
-12.36331665627429
 20
12.99868659163581
 30
0.0
 11
-12.36331665627429
 21
11.71293562469206
 31
0.0
  0
LINE
  5
72
330
1F
100
AcDbEntity
  8
0
  6
Continuous
 62
     7
370
     5
100
AcDbLine
 10
-12.36331665627429
 20
11.71293562469206
 30
0.0
 11
-12.36331665627429
 21
10.4271846577483
 31
0.0
  0
LINE
  5
73
330
1F
100
AcDbEntity
  8
0
  6
Continuous
 62
     7
370
     5
100
AcDbLine
 10
7.112361556972683
 20
10.46407651321561
 30
0.0
 11
11.09699399800047
 21
16.31417805518648
 31
0.0
  0
LINE
  5
74
330
1F
100
AcDbEntity
  8
0
  6
Continuous
 62
     7
370
     5
100
AcDbLine
 10
7.112361556972683
 20
10.46407651321561
 30
0.0
 11
5.16978838590709
 21
8.568065545922083
 31
0.0
  0
LINE
  5
75
330
1F
100
AcDbEntity
  8
0
  6
Continuous
 62
     7
370
     5
100
AcDbLine
 10
4.499765227521961
 20
7.848818746725526
 30
0.0
 11
4.499765227521961
 21
6.628351435884983
 31
0.0
  0
LINE
  5
76
330
1F
100
AcDbEntity
  8
0
  6
Continuous
 62
     7
370
     5
100
AcDbLine
 10
-0.0736435759346323
 20
-0.0861717498796454
 30
0.0
 11
4.499765227521961
 21
6.628351435884983
 31
0.0
  0
SPLINE
  5
77
330
1F
100
AcDbEntity
  8
0
  6
Continuous
 62
     7
370
     5
100
AcDbSpline
210
0.0
220
0.0
230
1.0
 70
     8
 71
     3
 72
    36
 73
    32
 74
     0
 42
0.0000000001
 43
0.0000000001
 40
0.0
 40
0.0
 40
0.0
 40
0.0
 40
0.039610630132878
 40
0.0755382003719138
 40
0.1085773787650203
 40
0.1395269761773712
 40
0.1691448795252114
 40
0.1980968112419058
 40
0.2326910446055888
 40
0.2677217816333639
 40
0.303522629336172
 40
0.3401792806395731
 40
0.3775907874557502
 40
0.4307760352605174
 40
0.4840874066628176
 40
0.5364984320592834
 40
0.5870175823752673
 40
0.6174512381123222
 40
0.6467283063073226
 40
0.6748611616090134
 40
0.7020211971169075
 40
0.7285873275943715
 40
0.7537598658411132
 40
0.779677877307628
 40
0.8072038215874291
 40
0.8372609413154869
 40
0.8637481920135668
 40
0.8928749998983239
 40
0.9250474686372863
 40
0.9606403556455015
 40
1.0
 40
1.0
 40
1.0
 40
1.0
 10
-0.0736435759346323
 20
-0.0861717498796454
 30
0.0
 10
-0.0397699809695069
 20
0.0242488685999445
 30
0.0
 10
0.024827587794466
 20
0.2348230194256399
 30
0.0
 10
0.1002909792099653
 20
0.5434359564091542
 30
0.0
 10
0.1544207049107691
 20
0.8265512703985386
 30
0.0
 10
0.1878911548810489
 20
1.086234089813974
 30
0.0
 10
0.2025946881107324
 20
1.323828468137722
 30
0.0
 10
0.200123144491025
 20
1.555305536533811
 30
0.0
 10
0.1785562420170839
 20
1.778732637731423
 30
0.0
 10
0.1370873753392792
 20
1.991599610818688
 30
0.0
 10
0.0801965950441168
 20
2.184484551490231
 30
0.0
 10
0.0109198291350549
 20
2.360987537074024
 30
0.0
 10
-0.0785043755102819
 20
2.54684785286354
 30
0.0
 10
-0.1879412930513355
 20
2.739170276336785
 30
0.0
 10
-0.3132461644668734
 20
2.941363205315531
 30
0.0
 10
-0.4354158190705532
 20
3.142522536732508
 30
0.0
 10
-0.533874498044497
 20
3.327355319941246
 30
0.0
 10
-0.6068642284108988
 20
3.497510574001848
 30
0.0
 10
-0.6576747667754656
 20
3.647308339804036
 30
0.0
 10
-0.6968843269624056
 20
3.808537048093826
 30
0.0
 10
-0.7223748744120544
 20
3.98375970444209
 30
0.0
 10
-0.7317182209275394
 20
4.172226177954811
 30
0.0
 10
-0.7237092308889849
 20
4.374782102170768
 30
0.0
 10
-0.6975449005539059
 20
4.592181529448108
 30
0.0
 10
-0.6513714363987111
 20
4.829361032915907
 30
0.0
 10
-0.5888909098276886
 20
5.067729986545401
 30
0.0
 10
-0.5136833672950912
 20
5.305675863423257
 30
0.0
 10
-0.4280467795431208
 20
5.543222008268384
 30
0.0
 10
-0.3260154235570627
 20
5.797174187560965
 30
0.0
 10
-0.2070252361618908
 20
6.069226992074265
 30
0.0
 10
-0.1195691711480817
 20
6.251694880593106
 30
0.0
 10
-0.0736435759346323
 20
6.347513808488453
 30
0.0
  0
LINE
  5
78
330
1F
100
AcDbEntity
  8
0
  6
Continuous
 62
     7
370
     5
100
AcDbLine
 10
9.716907322177428
 20
20.72166722133106
 30
0.0
 11
-0.0736435759346323
 21
6.347513808488453
 31
0.0
  0
SPLINE
  5
79
330
1F
100
AcDbEntity
  8
0
  6
Continuous
 62
     7
370
     5
100
AcDbSpline
210
0.0
220
0.0
230
1.0
 70
     8
 71
     3
 72
    31
 73
    27
 74
     0
 42
0.0000000001
 43
0.0000000001
 40
0.0
 40
0.0
 40
0.0
 40
0.0
 40
0.0436137268628175
 40
0.0832279138258611
 40
0.1193621272668501
 40
0.1525694615456875
 40
0.1834288680395117
 40
0.2125287526147116
 40
0.2404415469163783
 40
0.2676935147401765
 40
0.304045426652604
 40
0.3408484267980404
 40
0.378624701608089
 40
0.4176220055625681
 40
0.4578741290597074
 40
0.512267650527909
 40
0.5680837838529776
 40
0.6246562115521379
 40
0.6787244849417134
 40
0.7323133264281364
 40
0.7850486020919178
 40
0.8368277073867428
 40
0.8770292049485052
 40
0.9171875451869395
 40
0.9579018374312258
 40
1.0
 40
1.0
 40
1.0
 40
1.0
 10
9.716907322177428
 20
20.72166722133106
 30
0.0
 10
9.771113098985486
 20
20.75706410560114
 30
0.0
 10
9.874553782585739
 20
20.82461184906733
 30
0.0
 10
10.01978569470082
 20
20.89175141610631
 30
0.0
 10
10.14854500791435
 20
20.92818110101862
 30
0.0
 10
10.26166212653435
 20
20.93396921033954
 30
0.0
 10
10.36008840533337
 20
20.91119288767565
 30
0.0
 10
10.44471954817112
 20
20.86151868356701
 30
0.0
 10
10.51646802285552
 20
20.78681433131608
 30
0.0
 10
10.58306300723083
 20
20.67802054083495
 30
0.0
 10
10.64112751070606
 20
20.5269398021174
 30
0.0
 10
10.68725098477211
 20
20.32862638345824
 30
0.0
 10
10.71870390137592
 20
20.10217078411348
 30
0.0
 10
10.73810004194612
 20
19.85207845082575
 30
0.0
 10
10.74901813497595
 20
19.5536232160353
 30
0.0
 10
10.75098631566393
 20
19.20686475930772
 30
0.0
 10
10.74645861856788
 20
18.81615649982127
 30
0.0
 10
10.74069619597136
 20
18.42506156868727
 30
0.0
 10
10.73883169799546
 20
18.04275112659712
 30
0.0
 10
10.74534765190682
 20
17.67756491829841
 30
0.0
 10
10.76494721419364
 20
17.33182575923565
 30
0.0
 10
10.79994226954188
 20
17.03626457642902
 30
0.0
 10
10.84973250651986
 20
16.79205315274762
 30
0.0
 10
10.91222861375933
 20
16.59655912885911
 30
0.0
 10
10.99270911263435
 20
16.42997103465324
 30
0.0
 10
11.06184724947237
 20
16.35320333403058
 30
0.0
 10
11.09699399800047
 20
16.31417805518648
 30
0.0
  0
SPLINE
  5
7A
330
1F
100
AcDbEntity
  8
0
  6
Continuous
 62
     7
370
     5
100
AcDbSpline
210
0.0
220
0.0
230
1.0
 70
     8
 71
     3
 72
    36
 73
    32
 74
     0
 42
0.0000000001
 43
0.0000000001
 40
0.0
 40
0.0
 40
0.0
 40
0.0
 40
0.039610630132878
 40
0.0755382003719138
 40
0.1085773787650203
 40
0.1395269761773712
 40
0.1691448795252114
 40
0.1980968112419058
 40
0.2326910446055888
 40
0.2677217816333639
 40
0.303522629336172
 40
0.3401792806395731
 40
0.3775907874557502
 40
0.4307760352605174
 40
0.4840874066628176
 40
0.5364984320592834
 40
0.5870175823752673
 40
0.6174512381123222
 40
0.6467283063073226
 40
0.6748611616090134
 40
0.7020211971169075
 40
0.7285873275943715
 40
0.7537598658411132
 40
0.779677877307628
 40
0.8072038215874291
 40
0.8372609413154869
 40
0.8637481920135668
 40
0.8928749998983239
 40
0.9250474686372863
 40
0.9606403556455015
 40
1.0
 40
1.0
 40
1.0
 40
1.0
 10
-1.400270904559665
 20
0.2743771318555066
 30
0.0
 10
-1.36639730959454
 20
0.3847977503350943
 30
0.0
 10
-1.301799740830571
 20
0.595371901160792
 30
0.0
 10
-1.226336349415072
 20
0.9039848381443061
 30
0.0
 10
-1.172206623714268
 20
1.18710015213369
 30
0.0
 10
-1.138736173743971
 20
1.446782971549122
 30
0.0
 10
-1.124032640514305
 20
1.684377349872874
 30
0.0
 10
-1.126504184134017
 20
1.915854418268964
 30
0.0
 10
-1.148071086607945
 20
2.13928151946657
 30
0.0
 10
-1.189539953285762
 20
2.35214849255384
 30
0.0
 10
-1.246430733580912
 20
2.545033433225379
 30
0.0
 10
-1.315707499489987
 20
2.721536418809178
 30
0.0
 10
-1.405131704135306
 20
2.907396734598688
 30
0.0
 10
-1.514568621676377
 20
3.099719158071939
 30
0.0
 10
-1.63987349309191
 20
3.301912087050681
 30
0.0
 10
-1.762043147695582
 20
3.503071418467658
 30
0.0
 10
-1.860501826669525
 20
3.687904201676398
 30
0.0
 10
-1.933491557035932
 20
3.858059455737
 30
0.0
 10
-1.984302095400498
 20
4.007857221539186
 30
0.0
 10
-2.023511655587443
 20
4.169085929828979
 30
0.0
 10
-2.049002203037096
 20
4.344308586177244
 30
0.0
 10
-2.058345549552572
 20
4.532775059689961
 30
0.0
 10
-2.050336559514013
 20
4.735330983905916
 30
0.0
 10
-2.024172229178939
 20
4.952730411183258
 30
0.0
 10
-1.97799876502374
 20
5.189909914651059
 30
0.0
 10
-1.915518238452721
 20
5.428278868280552
 30
0.0
 10
-1.840310695920124
 20
5.666224745158409
 30
0.0
 10
-1.754674108168158
 20
5.903770890003536
 30
0.0
 10
-1.6526427521821
 20
6.157723069296116
 30
0.0
 10
-1.533652564786915
 20
6.429775873809415
 30
0.0
 10
-1.446196499773119
 20
6.612243762328257
 30
0.0
 10
-1.400270904559665
 20
6.708062690223605
 30
0.0
  0
LINE
  5
7B
330
1F
100
AcDbEntity
  8
0
  6
Continuous
 62
     7
370
     5
100
AcDbLine
 10
-1.400270904559665
 20
6.708062690223605
 30
0.0
 11
-0.0736435759346323
 21
6.347513808488453
 31
0.0
  0
LINE
  5
7C
330
1F
100
AcDbEntity
  8
0
  6
Continuous
 62
     7
370
     5
100
AcDbLine
 10
-1.400270904559665
 20
0.2743771318555066
 30
0.0
 11
-0.0736435759346323
 21
-0.0861717498796454
 31
0.0
  0
LINE
  5
7D
330
1F
100
AcDbEntity
  8
0
  6
Continuous
 62
     7
370
     5
100
AcDbLine
 10
8.390279993552395
 20
21.08221610306621
 30
0.0
 11
9.716907322177428
 21
20.72166722133106
 31
0.0
  0
LINE
  5
7E
330
1F
100
AcDbEntity
  8
0
  6
Continuous
 62
     7
370
     5
100
AcDbLine
 10
8.390279993552395
 20
21.08221610306621
 30
0.0
 11
-1.400270904559665
 21
6.708062690223605
 31
0.0
  0
SPLINE
  5
7F
330
1F
100
AcDbEntity
  8
0
  6
Continuous
 62
     7
370
     5
100
AcDbSpline
210
0.0
220
0.0
230
1.0
 70
     8
 71
     3
 72
    12
 73
     8
 74
     0
 42
0.0000000001
 43
0.0000000001
 40
0.0
 40
0.0
 40
0.0
 40
0.0
 40
0.2544900002328017
 40
0.4856423271402747
 40
0.6964886970442695
 40
0.890256465043863
 40
1.0
 40
1.0
 40
1.0
 40
1.0
 10
8.390279993552395
 20
21.08221610306621
 30
0.0
 10
8.444478011978146
 20
21.11758425648282
 30
0.0
 10
8.547903890286118
 20
21.18507717296749
 30
0.0
 10
8.693236126699131
 20
21.25258826110352
 30
0.0
 10
8.821662673811994
 20
21.28778564607112
 30
0.0
 10
8.922140786569219
 20
21.29645637252362
 30
0.0
 10
8.976238483959432
 20
21.28091139493307
 30
0.0
 10
8.995799114772099
 20
21.27529064613398
 30
0.0
  0
LINE
  5
80
330
1F
100
AcDbEntity
  8
0
  6
Continuous
 62
     7
370
     5
100
AcDbLine
 10
3.760804924064598
 20
5.543434045416965
 30
0.0
 11
4.499765227521961
 21
5.342600468941228
 31
0.0
  0
LINE
  5
81
330
1F
100
AcDbEntity
  8
0
  6
Continuous
 62
     7
370
     5
100
AcDbLine
 10
4.499765227521961
 20
5.342600468941228
 30
0.0
 11
4.499765227521961
 21
-7.367995359543829
 31
0.0
  0
LINE
  5
82
330
1F
100
AcDbEntity
  8
0
  6
Continuous
 62
     7
370
     5
100
AcDbLine
 10
3.173137898896927
 20
-7.007446477808682
 30
0.0
 11
4.499765227521961
 21
-7.367995359543829
 31
0.0
  0
LINE
  5
83
330
1F
100
AcDbEntity
  8
0
  6
Continuous
 62
     7
370
     5
100
AcDbLine
 10
3.173137898896927
 20
4.680642529647627
 30
0.0
 11
3.173137898896927
 21
-7.007446477808682
 31
0.0
  0
LINE
  5
84
330
1F
100
AcDbEntity
  8
0
  6
Continuous
 62
     7
370
     5
100
AcDbLine
 10
7.06658978428083
 20
4.644992434637809
 30
0.0
 11
7.06658978428083
 21
-5.296466827104659
 31
0.0
  0
SPLINE
  5
85
330
1F
100
AcDbEntity
  8
0
  6
Continuous
 62
     7
370
     5
100
AcDbSpline
210
0.0
220
0.0
230
1.0
 70
     8
 71
     3
 72
    31
 73
    27
 74
     0
 42
0.0000000001
 43
0.0000000001
 40
0.0
 40
0.0
 40
0.0
 40
0.0
 40
0.0446643571939207
 40
0.0855729883523348
 40
0.1237573882731917
 40
0.160180194818021
 40
0.1956692712150067
 40
0.2396663016298687
 40
0.2840154804507339
 40
0.329081192618322
 40
0.3748742034428605
 40
0.4211591369344167
 40
0.4675503779139444
 40
0.5135946129615046
 40
0.5588463562357589
 40
0.6029471105379111
 40
0.6457199465528792
 40
0.6872858666665918
 40
0.728197506041683
 40
0.7596034838909462
 40
0.7919609906676407
 40
0.8261284474462547
 40
0.8630569546865849
 40
0.9037223729313298
 40
0.9490727721351007
 40
1.0
 40
1.0
 40
1.0
 40
1.0
 10
7.06658978428083
 20
-5.296466827104659
 30
0.0
 10
7.032965132097671
 20
-5.28168537982528
 30
0.0
 10
6.968543249630464
 20
-5.253365424152876
 30
0.0
 10
6.864766926797034
 20
-5.251586211124163
 30
0.0
 10
6.761966005161861
 20
-5.280232028800325
 30
0.0
 10
6.659596871398719
 20
-5.338348001291334
 30
0.0
 10
6.549657193287325
 20
-5.428842221427742
 30
0.0
 10
6.431882638702574
 20
-5.555882528572077
 30
0.0
 10
6.307109464323522
 20
-5.72008957333826
 30
0.0
 10
6.183649314211657
 20
-5.905962717384992
 30
0.0
 10
6.061319755527148
 20
-6.107483992378986
 30
0.0
 10
5.93996756747275
 20
-6.31875996683771
 30
0.0
 10
5.819484141024348
 20
-6.533924661662322
 30
0.0
 10
5.699780725058682
 20
-6.747120755491582
 30
0.0
 10
5.580762693699494
 20
-6.95250134269795
 30
0.0
 10
5.46230056880208
 20
-7.144225487753491
 30
0.0
 10
5.344201014383905
 20
-7.316427572145626
 30
0.0
 10
5.226228251432941
 20
-7.463060521111826
 30
0.0
 10
5.117618792200969
 20
-7.568398402693213
 30
0.0
 10
5.019213448876408
 20
-7.635215638435761
 30
0.0
 10
4.930275587727492
 20
-7.670194691369384
 30
0.0
 10
4.841842846057151
 20
-7.676614362654668
 30
0.0
 10
4.754018880371534
 20
-7.651914997695963
 30
0.0
 10
4.667011886207924
 20
-7.593279590860463
 30
0.0
 10
4.580111815971709
 20
-7.499759146621136
 30
0.0
 10
4.527562062211923
 20
-7.413580570791492
 30
0.0
 10
4.499765227521965
 20
-7.367995359543834
 30
0.0
  0
LINE
  5
86
330
1F
100
AcDbEntity
  8
0
  6
Continuous
 62
     7
370
     5
100
AcDbLine
 10
6.927441808531008
 20
-5.258649388876317
 30
0.0
 11
7.06658978428083
 21
-5.296466827104659
 31
0.0
  0
SPLINE
  5
87
330
1F
100
AcDbEntity
  8
0
  6
Continuous
 62
     7
370
     5
100
AcDbSpline
210
0.0
220
0.0
230
1.0
 70
     8
 71
     3
 72
    11
 73
     7
 74
     0
 42
0.0000000001
 43
0.0000000001
 40
0.0
 40
0.0
 40
0.0
 40
0.0
 40
0.119759309033685
 40
0.3811479452529629
 40
0.672650639963484
 40
1.0
 40
1.0
 40
1.0
 40
1.0
 10
3.475599026809592
 20
-7.299576217355206
 30
0.0
 10
3.460772250504779
 20
-7.29628310942477
 30
0.0
 10
3.413584308549342
 20
-7.285802410000983
 30
0.0
 10
3.340717512430311
 20
-7.231504219339598
 30
0.0
 10
3.253384973920392
 20
-7.139576837716552
 30
0.0
 10
3.200900305762212
 20
-7.053158509181123
 30
0.0
 10
3.173137898896927
 20
-7.007446477808682
 30
0.0
  0
LINE
  5
88
330
1F
100
AcDbEntity
  8
0
  6
Continuous
 62
     7
370
     5
100
AcDbLine
 10
20.35224532965965
 20
6.808645359798748
 30
0.0
 11
7.06658978428083
 21
10.4194018598698
 31
0.0
  0
LINE
  5
89
330
1F
100
AcDbEntity
  8
0
  6
Continuous
 62
     7
370
     5
100
AcDbLine
 10
2.055270263159093
 20
11.78137112612231
 30
0.0
 11
-10.21508717711685
 21
15.11619135643323
 31
0.0
  0
SPLINE
  5
8A
330
1F
100
AcDbEntity
  8
0
  6
Continuous
 62
     7
370
     5
100
AcDbSpline
210
0.0
220
0.0
230
1.0
 70
     8
 71
     3
 72
    31
 73
    27
 74
     0
 42
0.0000000001
 43
0.0000000001
 40
0.0
 40
0.0
 40
0.0
 40
0.0
 40
0.042989543607412
 40
0.0819250449350472
 40
0.1177889279133781
 40
0.1515499745071706
 40
0.1840975165796572
 40
0.2161776169519333
 40
0.2483511360596292
 40
0.2942018612436352
 40
0.3413876803546596
 40
0.3898616164755101
 40
0.4392563200988415
 40
0.4890290397470378
 40
0.5385789613631672
 40
0.5873566577061017
 40
0.6349787212862456
 40
0.6813680561529685
 40
0.7269225088360242
 40
0.7595196635571658
 40
0.7928138719968187
 40
0.8275815948194289
 40
0.8647233741990925
 40
0.9052027700768466
 40
0.9499856843558644
 40
1.0
 40
1.0
 40
1.0
 40
1.0
 10
20.35224532965965
 20
6.808645359798748
 30
0.0
 10
20.26797251438742
 20
6.796203133870848
 30
0.0
 10
20.10737406186537
 20
6.772492021058301
 30
0.0
 10
19.88869998112646
 20
6.720471682760459
 30
0.0
 10
19.70143544220414
 20
6.659273394825718
 30
0.0
 10
19.54363715655999
 20
6.588767564327616
 30
0.0
 10
19.41262880496945
 20
6.51020687668077
 30
0.0
 10
19.30564094560409
 20
6.424564981044028
 30
0.0
 10
19.20794952177847
 20
6.320333943407028
 30
0.0
 10
19.12615025421679
 20
6.195531809376133
 30
0.0
 10
19.06337305309756
 20
6.050467101414335
 30
0.0
 10
19.01982716610558
 20
5.89988481288333
 30
0.0
 10
18.98780776946229
 20
5.745870867014028
 30
0.0
 10
18.95974191151847
 20
5.590536851453235
 30
0.0
 10
18.92807648116113
 20
5.436020540654255
 30
0.0
 10
18.88525271389514
 20
5.284443151745417
 30
0.0
 10
18.82354043386058
 20
5.137881403120028
 30
0.0
 10
18.73494986216893
 20
4.998407222544121
 30
0.0
 10
18.62266468288633
 20
4.880604806326012
 30
0.0
 10
18.49287045144245
 20
4.784290673944741
 30
0.0
 10
18.35334463179248
 20
4.706425082623645
 30
0.0
 10
18.18612990696907
 20
4.636799463414185
 30
0.0
 10
17.98872909292913
 20
4.576323116427881
 30
0.0
 10
17.75862677320164
 20
4.526102428070925
 30
0.0
 10
17.49354880575171
 20
4.48595048834174
 30
0.0
 10
17.30274401880293
 20
4.470197465506502
 30
0.0
 10
17.20207682790921
 20
4.461886287457639
 30
0.0
  0
LINE
  5
8B
330
1F
100
AcDbEntity
  8
0
  6
Continuous
 62
     7
370
     5
100
AcDbLine
 10
-11.96522730531275
 20
12.38893457113927
 30
0.0
 11
0.2144595988453326
 21
9.078756649710619
 31
0.0
  0
LINE
  5
8C
330
1F
100
AcDbEntity
  8
0
  6
Continuous
 62
     7
370
     5
100
AcDbLine
 10
5.572044766986303
 20
7.622679800173595
 30
0.0
 11
17.20207682790921
 21
4.461886287457639
 31
0.0
  0
SPLINE
  5
8D
330
1F
100
AcDbEntity
  8
0
  6
Continuous
 62
     7
370
     5
100
AcDbSpline
210
0.0
220
0.0
230
1.0
 70
     8
 71
     3
 72
     8
 73
     4
 74
     0
 42
0.0000000001
 43
0.0000000001
 40
0.0000000482805897
 40
0.0000000482805897
 40
0.0000000482805897
 40
0.0000000482805897
 40
1.0
 40
1.0
 40
1.0
 40
1.0
 10
-10.2150873145606
 20
15.1161912969704
 30
0.0
 10
-8.598221165029322
 20
13.76328821554213
 30
0.0
 10
-13.80137843997356
 20
13.95600866290032
 30
0.0
 10
-11.96522769025255
 20
12.38893460848452
 30
0.0
  0
LINE
  5
8E
330
1F
100
AcDbEntity
  8
0
  6
Continuous
 62
     7
370
     5
100
AcDbLine
 10
20.35224532965965
 20
6.808645359798748
 30
0.0
 11
20.35224532965965
 21
5.522894392854997
 31
0.0
  0
SPLINE
  5
8F
330
1F
100
AcDbEntity
  8
0
  6
Continuous
 62
     7
370
     5
100
AcDbSpline
210
0.0
220
0.0
230
1.0
 70
     8
 71
     3
 72
    31
 73
    27
 74
     0
 42
0.0000000001
 43
0.0000000001
 40
0.0
 40
0.0
 40
0.0
 40
0.0
 40
0.042989543607412
 40
0.0819250449350472
 40
0.1177889279133781
 40
0.1515499745071706
 40
0.1840975165796572
 40
0.2161776169519333
 40
0.2483511360596292
 40
0.2942018612436352
 40
0.3413876803546596
 40
0.3898616164755101
 40
0.4392563200988415
 40
0.4890290397470378
 40
0.5385789613631672
 40
0.5873566577061017
 40
0.6349787212862456
 40
0.6813680561529685
 40
0.7269225088360242
 40
0.7595196635571658
 40
0.7928138719968187
 40
0.8275815948194289
 40
0.8647233741990925
 40
0.9052027700768466
 40
0.9499856843558644
 40
1.0
 40
1.0
 40
1.0
 40
1.0
 10
20.35224532965965
 20
5.522894392854997
 30
0.0
 10
20.26797251438742
 20
5.510452166927096
 30
0.0
 10
20.10737406186537
 20
5.48674105411455
 30
0.0
 10
19.88869998112646
 20
5.434720715816708
 30
0.0
 10
19.70143544220414
 20
5.373522427881964
 30
0.0
 10
19.54363715655999
 20
5.303016597383865
 30
0.0
 10
19.41262880496945
 20
5.224455909737019
 30
0.0
 10
19.30564094560409
 20
5.138814014100276
 30
0.0
 10
19.20794952177847
 20
5.034582976463276
 30
0.0
 10
19.12615025421679
 20
4.909780842432381
 30
0.0
 10
19.06337305309756
 20
4.764716134470583
 30
0.0
 10
19.01982716610558
 20
4.614133845939579
 30
0.0
 10
18.98780776946229
 20
4.460119900070276
 30
0.0
 10
18.95974191151847
 20
4.304785884509484
 30
0.0
 10
18.92807648116113
 20
4.150269573710504
 30
0.0
 10
18.88525271389514
 20
3.998692184801665
 30
0.0
 10
18.82354043386058
 20
3.852130436176276
 30
0.0
 10
18.73494986216893
 20
3.712656255600369
 30
0.0
 10
18.62266468288633
 20
3.59485383938226
 30
0.0
 10
18.49287045144245
 20
3.498539707000989
 30
0.0
 10
18.35334463179248
 20
3.420674115679893
 30
0.0
 10
18.18612990696907
 20
3.351048496470433
 30
0.0
 10
17.98872909292913
 20
3.29057214948413
 30
0.0
 10
17.75862677320164
 20
3.240351461127173
 30
0.0
 10
17.49354880575171
 20
3.200199521397988
 30
0.0
 10
17.30274401880293
 20
3.18444649856275
 30
0.0
 10
17.20207682790921
 20
3.176135320513887
 30
0.0
  0
LINE
  5
90
330
1F
100
AcDbEntity
  8
0
  6
Continuous
 62
     7
370
     5
100
AcDbLine
 10
17.20207682790921
 20
4.461886287457639
 30
0.0
 11
17.20207682790921
 21
3.176135320513883
 31
0.0
  0
LINE
  5
91
330
1F
100
AcDbEntity
  8
0
  6
Continuous
 62
     7
370
     5
100
AcDbLine
 10
-11.96522730531275
 20
11.10318360419552
 30
0.0
 11
-0.5245007046120253
 21
7.993839259242602
 31
0.0
  0
LINE
  5
92
330
1F
100
AcDbEntity
  8
0
  6
Continuous
 62
     7
370
     5
100
AcDbLine
 10
4.499765227521961
 20
6.628351435884985
 30
0.0
 11
4.632346604290893
 21
6.592318658554454
 31
0.0
  0
LINE
  5
93
330
1F
100
AcDbEntity
  8
0
  6
Continuous
 62
     7
370
     5
100
AcDbLine
 10
5.983241708479614
 20
6.225174315416622
 30
0.0
 11
17.20207682790921
 21
3.176135320513883
 31
0.0
  0
LINE
  5
94
330
1F
100
AcDbEntity
  8
0
  6
Continuous
 62
     7
370
     5
100
AcDbLine
 10
-11.96522730531275
 20
12.38893457113927
 30
0.0
 11
-11.96522730531275
 21
11.10318360419552
 31
0.0
  0
LINE
  5
95
330
1F
100
AcDbEntity
  8
0
  6
Continuous
 62
     7
370
     5
100
AcDbLine
 10
-10.21508717711685
 20
15.11619135643323
 30
0.0
 11
-10.21508717711685
 21
14.23501512163752
 31
0.0
  0
SPLINE
  5
96
330
1F
100
AcDbEntity
  8
0
  6
Continuous
 62
     7
370
     5
100
AcDbSpline
210
0.0
220
0.0
230
1.0
 70
     8
 71
     3
 72
    12
 73
     8
 74
     0
 42
0.0000000001
 43
0.0000000001
 40
0.0
 40
0.0
 40
0.0
 40
0.0
 40
0.2489362988121144
 40
0.4708867660967393
 40
0.6695519135433931
 40
0.8488957542723067
 40
1.0
 40
1.0
 40
1.0
 40
1.0
 10
-11.96522730531275
 20
11.10318360419552
 30
0.0
 10
-12.01760339874694
 20
11.14999781571883
 30
0.0
 10
-12.11667777791821
 20
11.23855136446513
 30
0.0
 10
-12.23115090422492
 20
11.37166797687828
 30
0.0
 10
-12.30947296440566
 20
11.49554344728961
 30
0.0
 10
-12.35555251681465
 20
11.60840518023138
 30
0.0
 10
-12.36013878878487
 20
11.68015821364151
 30
0.0
 10
-12.36223595682779
 20
11.71296877734721
 30
0.0
  0
LINE
  5
97
330
1F
100
AcDbEntity
  8
0
  6
Continuous
 62
     7
370
     5
100
AcDbLine
 10
20.35224532965965
 20
5.522894392854997
 30
0.0
 11
20.35224532965965
 21
4.237143425911236
 31
0.0
  0
SPLINE
  5
98
330
1F
100
AcDbEntity
  8
0
  6
Continuous
 62
     7
370
     5
100
AcDbSpline
210
0.0
220
0.0
230
1.0
 70
     8
 71
     3
 72
    31
 73
    27
 74
     0
 42
0.0000000001
 43
0.0000000001
 40
0.0
 40
0.0
 40
0.0
 40
0.0
 40
0.0500143156441356
 40
0.0947972299231535
 40
0.1352766258009074
 40
0.1724184051805709
 40
0.207186128003181
 40
0.240480336442834
 40
0.2730774911639757
 40
0.3186319438470314
 40
0.3650212787137543
 40
0.4126433422938982
 40
0.4614210386368328
 40
0.5109709602529622
 40
0.5607436799011585
 40
0.61013838352449
 40
0.6586123196453404
 40
0.7057981387563648
 40
0.7516488639403708
 40
0.7838223830480667
 40
0.8159024834203428
 40
0.8484500254928292
 40
0.8822110720866218
 40
0.9180749550649526
 40
0.9570104563925879
 40
1.0
 40
1.0
 40
1.0
 40
1.0
 10
17.20207682790922
 20
1.890384353570125
 30
0.0
 10
17.30274401880292
 20
1.898695531618992
 30
0.0
 10
17.49354880575171
 20
1.914448554454226
 30
0.0
 10
17.75862677320164
 20
1.954600494183413
 30
0.0
 10
17.98872909292912
 20
2.004821182540374
 30
0.0
 10
18.18612990696905
 20
2.065297529526677
 30
0.0
 10
18.35334463179248
 20
2.134923148736131
 30
0.0
 10
18.49287045144246
 20
2.212788740057227
 30
0.0
 10
18.62266468288633
 20
2.3091028724385
 30
0.0
 10
18.73494986216892
 20
2.426905288656609
 30
0.0
 10
18.82354043386055
 20
2.566379469232522
 30
0.0
 10
18.88525271389515
 20
2.712941217857903
 30
0.0
 10
18.92807648116113
 20
2.864518606766744
 30
0.0
 10
18.95974191151846
 20
3.01903491756573
 30
0.0
 10
18.9878077694623
 20
3.174368933126514
 30
0.0
 10
19.01982716610559
 20
3.328382878995814
 30
0.0
 10
19.06337305309754
 20
3.47896516752683
 30
0.0
 10
19.1261502542168
 20
3.624029875488616
 30
0.0
 10
19.20794952177847
 20
3.748832009519516
 30
0.0
 10
19.30564094560406
 20
3.853063047156522
 30
0.0
 10
19.41262880496946
 20
3.938704942793257
 30
0.0
 10
19.54363715656
 20
4.017265630440102
 30
0.0
 10
19.70143544220414
 20
4.087771460938206
 30
0.0
 10
19.88869998112647
 20
4.148969748872946
 30
0.0
 10
20.10737406186536
 20
4.200990087170794
 30
0.0
 10
20.26797251438742
 20
4.224701199983337
 30
0.0
 10
20.35224532965965
 20
4.237143425911236
 30
0.0
  0
LINE
  5
99
330
1F
100
AcDbEntity
  8
0
  6
Continuous
 62
     7
370
     5
100
AcDbLine
 10
17.20207682790921
 20
3.176135320513887
 30
0.0
 11
17.20207682790921
 21
1.890384353570127
 31
0.0
  0
SPLINE
  5
9A
330
1F
100
AcDbEntity
  8
0
  6
Continuous
 62
     7
370
     5
100
AcDbSpline
210
0.0
220
0.0
230
1.0
 70
     8
 71
     3
 72
    31
 73
    27
 74
     0
 42
0.0000000001
 43
0.0000000001
 40
0.0
 40
0.0
 40
0.0
 40
0.0
 40
0.042989543607412
 40
0.0819250449350472
 40
0.1177889279133781
 40
0.1515499745071706
 40
0.1840975165796572
 40
0.2161776169519333
 40
0.2483511360596292
 40
0.2942018612436352
 40
0.3413876803546596
 40
0.3898616164755101
 40
0.4392563200988415
 40
0.4890290397470378
 40
0.5385789613631672
 40
0.5873566577061017
 40
0.6349787212862456
 40
0.6813680561529685
 40
0.7269225088360242
 40
0.7595196635571658
 40
0.7928138719968187
 40
0.8275815948194289
 40
0.8647233741990925
 40
0.9052027700768466
 40
0.9499856843558644
 40
1.0
 40
1.0
 40
1.0
 40
1.0
 10
20.35224532965965
 20
5.522894392854997
 30
0.0
 10
20.26797251438742
 20
5.510452166927096
 30
0.0
 10
20.10737406186537
 20
5.48674105411455
 30
0.0
 10
19.88869998112646
 20
5.434720715816708
 30
0.0
 10
19.70143544220414
 20
5.373522427881964
 30
0.0
 10
19.54363715655999
 20
5.303016597383865
 30
0.0
 10
19.41262880496945
 20
5.224455909737019
 30
0.0
 10
19.30564094560409
 20
5.138814014100276
 30
0.0
 10
19.20794952177847
 20
5.034582976463276
 30
0.0
 10
19.12615025421679
 20
4.909780842432381
 30
0.0
 10
19.06337305309756
 20
4.764716134470583
 30
0.0
 10
19.01982716610558
 20
4.614133845939579
 30
0.0
 10
18.98780776946229
 20
4.460119900070276
 30
0.0
 10
18.95974191151847
 20
4.304785884509484
 30
0.0
 10
18.92807648116113
 20
4.150269573710504
 30
0.0
 10
18.88525271389514
 20
3.998692184801665
 30
0.0
 10
18.82354043386058
 20
3.852130436176276
 30
0.0
 10
18.73494986216893
 20
3.712656255600369
 30
0.0
 10
18.62266468288633
 20
3.59485383938226
 30
0.0
 10
18.49287045144245
 20
3.498539707000989
 30
0.0
 10
18.35334463179248
 20
3.420674115679893
 30
0.0
 10
18.18612990696907
 20
3.351048496470433
 30
0.0
 10
17.98872909292913
 20
3.29057214948413
 30
0.0
 10
17.75862677320164
 20
3.240351461127173
 30
0.0
 10
17.49354880575171
 20
3.200199521397988
 30
0.0
 10
17.30274401880293
 20
3.18444649856275
 30
0.0
 10
17.20207682790921
 20
3.176135320513887
 30
0.0
  0
LINE
  5
9B
330
1F
100
AcDbEntity
  8
0
  6
Continuous
 62
     7
370
     5
100
AcDbLine
 10
-11.96522730531275
 20
9.817432637251759
 30
0.0
 11
-1.263461008069387
 21
6.908921868774579
 31
0.0
  0
LINE
  5
9C
330
1F
100
AcDbEntity
  8
0
  6
Continuous
 62
     7
370
     5
100
AcDbLine
 10
3.760804924064598
 20
5.543434045416965
 30
0.0
 11
17.20207682790921
 21
1.890384353570127
 31
0.0
  0
LINE
  5
9D
330
1F
100
AcDbEntity
  8
0
  6
Continuous
 62
     7
370
     5
100
AcDbLine
 10
-11.96522730531275
 20
11.10318360419552
 30
0.0
 11
-11.96522730531275
 21
9.817432637251759
 31
0.0
  0
SPLINE
  5
9E
330
1F
100
AcDbEntity
  8
0
  6
Continuous
 62
     7
370
     5
100
AcDbSpline
210
0.0
220
0.0
230
1.0
 70
     8
 71
     3
 72
    12
 73
     8
 74
     0
 42
0.0000000001
 43
0.0000000001
 40
0.0
 40
0.0
 40
0.0
 40
0.0
 40
0.1511042457276933
 40
0.330448086456607
 40
0.5291132339032609
 40
0.7510637011878857
 40
1.0
 40
1.0
 40
1.0
 40
1.0
 10
-12.36223595682779
 20
10.42721781040345
 30
0.0
 10
-12.36013878878486
 20
10.39440724669775
 30
0.0
 10
-12.35555251681464
 20
10.32265421328762
 30
0.0
 10
-12.30947296440566
 20
10.20979248034585
 30
0.0
 10
-12.23115090422492
 20
10.08591700993452
 30
0.0
 10
-12.11667777791822
 20
9.952800397521377
 30
0.0
 10
-12.01760339874694
 20
9.864246848775074
 30
0.0
 10
-11.96522730531275
 20
9.817432637251759
 30
0.0
  0
SPLINE
  5
9F
330
1F
100
AcDbEntity
  8
0
  6
Continuous
 62
     7
370
     5
100
AcDbSpline
210
0.0
220
0.0
230
1.0
 70
     8
 71
     3
 72
    11
 73
     7
 74
     0
 42
0.0000000001
 43
0.0000000001
 40
0.0
 40
0.0
 40
0.0
 40
0.0
 40
0.2799622299151085
 40
0.5593583548798762
 40
0.7795259443559491
 40
1.0
 40
1.0
 40
1.0
 40
1.0
 10
4.357417070893752
 20
8.980296267127545
 30
0.0
 10
4.357618233213926
 20
8.977310726987463
 30
0.0
 10
4.358020151088721
 20
8.971345683696842
 30
0.0
 10
4.361114501515819
 20
8.967169343548647
 30
0.0
 10
4.364996171774435
 20
8.966673154327271
 30
0.0
 10
4.367719852986216
 20
8.96892181558028
 30
0.0
 10
4.369082640751944
 20
8.970046928178494
 30
0.0
  0
LINE
  5
A0
330
1F
100
AcDbEntity
  8
0
  6
Continuous
 62
     7
370
     5
100
AcDbLine
 10
4.38602458283386
 20
9.00821807578491
 30
0.0
 11
4.357417070893752
 21
8.980296267127545
 31
0.0
  0
SPLINE
  5
A1
330
1F
100
AcDbEntity
  8
0
  6
Continuous
 62
     7
370
     5
100
AcDbSpline
210
0.0
220
0.0
230
1.0
 70
     8
 71
     3
 72
     9
 73
     5
 74
     0
 42
0.0000000001
 43
0.0000000001
 40
0.0
 40
0.0
 40
0.0
 40
0.0
 40
0.5589006713150879
 40
1.0
 40
1.0
 40
1.0
 40
1.0
 10
4.382544967101233
 20
9.025201501324735
 30
0.0
 10
4.383683765469388
 20
9.022779838522186
 30
0.0
 10
4.385721333907929
 20
9.018446934793777
 30
0.0
 10
4.385931762793636
 20
9.011348979222455
 30
0.0
 10
4.38602458283386
 20
9.00821807578491
 30
0.0
  0
SPLINE
  5
A2
330
1F
100
AcDbEntity
  8
0
  6
Continuous
 62
     7
370
     5
100
AcDbSpline
210
0.0
220
0.0
230
1.0
 70
     8
 71
     3
 72
     9
 73
     5
 74
     0
 42
0.0000000001
 43
0.0000000001
 40
0.0
 40
0.0
 40
0.0
 40
0.0
 40
0.7852029814137739
 40
1.0
 40
1.0
 40
1.0
 40
1.0
 10
4.369669923445033
 20
9.024193180096052
 30
0.0
 10
4.37258000779066
 20
9.026667313935984
 30
0.0
 10
4.3762861632874
 20
9.029818262032842
 30
0.0
 10
4.37882084734107
 20
9.0277303146004
 30
0.0
 10
4.379365289918858
 20
9.027281829716947
 30
0.0
  0
SPLINE
  5
A3
330
1F
100
AcDbEntity
  8
0
  6
Continuous
 62
     7
370
     5
100
AcDbSpline
210
0.0
220
0.0
230
1.0
 70
     8
 71
     3
 72
     9
 73
     5
 74
     0
 42
0.0000000001
 43
0.0000000001
 40
0.0
 40
0.0
 40
0.0
 40
0.0
 40
0.5585745401814196
 40
1.0
 40
1.0
 40
1.0
 40
1.0
 10
4.3571716168451
 20
9.001047818278239
 30
0.0
 10
4.359134619040254
 20
9.006513083019255
 30
0.0
 10
4.36264892564384
 20
9.016297389943165
 30
0.0
 10
4.367519796872987
 20
9.021775155095086
 30
0.0
 10
4.369669923445033
 20
9.024193180096052
 30
0.0
  0
SPLINE
  5
A4
330
1F
100
AcDbEntity
  8
0
  6
Continuous
 62
     7
370
     5
100
AcDbSpline
210
0.0
220
0.0
230
1.0
 70
     8
 71
     3
 72
     9
 73
     5
 74
     0
 42
0.0000000001
 43
0.0000000001
 40
0.0
 40
0.0
 40
0.0
 40
0.0
 40
0.5594272664570967
 40
1.0
 40
1.0
 40
1.0
 40
1.0
 10
4.353490490594008
 20
8.977848193580445
 30
0.0
 10
4.353684924732745
 20
8.982026679474095
 30
0.0
 10
4.354032484014162
 20
8.989495900486703
 30
0.0
 10
4.3562115706773
 20
8.997514876219449
 30
0.0
 10
4.3571716168451
 20
9.001047818278239
 30
0.0
  0
SPLINE
  5
A5
330
1F
100
AcDbEntity
  8
0
  6
Continuous
 62
     7
370
     5
100
AcDbSpline
210
0.0
220
0.0
230
1.0
 70
     8
 71
     3
 72
    11
 73
     7
 74
     0
 42
0.0000000001
 43
0.0000000001
 40
0.0
 40
0.0
 40
0.0
 40
0.0
 40
0.27987689209045
 40
0.5588473004211023
 40
0.7794490333100309
 40
1.0
 40
1.0
 40
1.0
 40
1.0
 10
4.369573411953513
 20
8.963314087853822
 30
0.0
 10
4.367140867076562
 20
8.96134102694104
 30
0.0
 10
4.362283656009659
 20
8.957401295595445
 30
0.0
 10
4.357055965346827
 20
8.960874592956717
 30
0.0
 10
4.354010371647373
 20
8.96792998527915
 30
0.0
 10
4.353663770983298
 20
8.974542377789793
 30
0.0
 10
4.353490490594008
 20
8.977848193580445
 30
0.0
  0
SPLINE
  5
A6
330
1F
100
AcDbEntity
  8
0
  6
Continuous
 62
     7
370
     5
100
AcDbSpline
210
0.0
220
0.0
230
1.0
 70
     8
 71
     3
 72
    10
 73
     6
 74
     0
 42
0.0000000001
 43
0.0000000001
 40
0.0
 40
0.0
 40
0.0
 40
0.0
 40
0.2808702129144234
 40
0.5613322212716979
 40
1.0
 40
1.0
 40
1.0
 40
1.0
 10
4.38434172359233
 20
8.993938790621683
 30
0.0
 10
4.383446886795197
 20
8.990412403268736
 30
0.0
 10
4.381658513717844
 20
8.983364753660913
 30
0.0
 10
4.376640202525497
 20
8.971623429081494
 30
0.0
 10
4.372250886336328
 20
8.966462341371247
 30
0.0
 10
4.369573411953518
 20
8.963314087853822
 30
0.0
  0
LINE
  5
A7
330
1F
100
AcDbEntity
  8
0
  6
Continuous
 62
     7
370
     5
100
AcDbLine
 10
4.380853483428551
 20
8.993898584076326
 30
0.0
 11
4.38434172359233
 21
8.993938790621683
 31
0.0
  0
SPLINE
  5
A8
330
1F
100
AcDbEntity
  8
0
  6
Continuous
 62
     7
370
     5
100
AcDbSpline
210
0.0
220
0.0
230
1.0
 70
     8
 71
     3
 72
    10
 73
     6
 74
     0
 42
0.0000000001
 43
0.0000000001
 40
0.0
 40
0.0
 40
0.0
 40
0.0
 40
0.2805074254929391
 40
0.5609950800115405
 40
0.9999999999999998
 40
0.9999999999999998
 40
0.9999999999999998
 40
0.9999999999999998
 10
4.369082640751944
 20
8.970046928178494
 30
0.0
 10
4.370403925543723
 20
8.971544284711789
 30
0.0
 10
4.373046401999299
 20
8.97453889224036
 30
0.0
 10
4.377538812760198
 20
8.982412869382553
 30
0.0
 10
4.379597411025752
 20
8.989546148888413
 30
0.0
 10
4.380853483428551
 20
8.993898584076326
 30
0.0
  0
LINE
  5
A9
330
1F
100
AcDbEntity
  8
0
  6
Continuous
 62
     7
370
     5
100
AcDbLine
 10
4.308615932533981
 20
8.904848090968323
 30
0.0
 11
4.304689352234237
 21
8.901015628220893
 31
0.0
  0
LINE
  5
AA
330
1F
100
AcDbEntity
  8
0
  6
Continuous
 62
     7
370
     5
100
AcDbLine
 10
4.308615932533981
 20
8.96357224150436
 30
0.0
 11
4.308615932533981
 21
8.904848090968323
 31
0.0
  0
LINE
  5
AB
330
1F
100
AcDbEntity
  8
0
  6
Continuous
 62
     7
370
     5
100
AcDbLine
 10
4.304689352234237
 20
8.959739778756928
 30
0.0
 11
4.308615932533981
 21
8.96357224150436
 31
0.0
  0
LINE
  5
AC
330
1F
100
AcDbEntity
  8
0
  6
Continuous
 62
     7
370
     5
100
AcDbLine
 10
4.304689352234237
 20
8.901015628220893
 30
0.0
 11
4.304689352234237
 21
8.959739778756928
 31
0.0
  0
LINE
  5
AD
330
1F
100
AcDbEntity
  8
0
  6
Continuous
 62
     7
370
     5
100
AcDbLine
 10
4.2990800495887
 20
8.895540776877727
 30
0.0
 11
4.278325561352343
 21
8.875283760100794
 31
0.0
  0
LINE
  5
AE
330
1F
100
AcDbEntity
  8
0
  6
Continuous
 62
     7
370
     5
100
AcDbLine
 10
4.2990800495887
 20
8.903782745273462
 30
0.0
 11
4.2990800495887
 21
8.895540776877727
 31
0.0
  0
LINE
  5
AF
330
1F
100
AcDbEntity
  8
0
  6
Continuous
 62
     7
370
     5
100
AcDbLine
 10
4.282252141652087
 20
8.887358191243963
 30
0.0
 11
4.2990800495887
 21
8.903782745273462
 31
0.0
  0
LINE
  5
B0
330
1F
100
AcDbEntity
  8
0
  6
Continuous
 62
     7
370
     5
100
AcDbLine
 10
4.282252141652087
 20
8.959475666139487
 30
0.0
 11
4.282252141652087
 21
8.887358191243963
 31
0.0
  0
LINE
  5
B1
330
1F
100
AcDbEntity
  8
0
  6
Continuous
 62
     7
370
     5
100
AcDbLine
 10
4.278325561352343
 20
8.955643203392055
 30
0.0
 11
4.282252141652087
 21
8.959475666139487
 31
0.0
  0
LINE
  5
B2
330
1F
100
AcDbEntity
  8
0
  6
Continuous
 62
     7
370
     5
100
AcDbLine
 10
4.278325561352343
 20
8.875283760100794
 30
0.0
 11
4.278325561352343
 21
8.955643203392055
 31
0.0
  0
LINE
  5
B3
330
1F
100
AcDbEntity
  8
0
  6
Continuous
 62
     7
370
     5
100
AcDbLine
 10
4.198673326889982
 20
8.856264887949439
 30
0.0
 11
4.204282629535519
 21
8.861739739292604
 31
0.0
  0
LINE
  5
B4
330
1F
100
AcDbEntity
  8
0
  6
Continuous
 62
     7
370
     5
100
AcDbLine
 10
4.198673326889982
 20
8.849053039886751
 30
0.0
 11
4.198673326889982
 21
8.856264887949439
 31
0.0
  0
LINE
  5
B5
330
1F
100
AcDbEntity
  8
0
  6
Continuous
 62
     7
370
     5
100
AcDbLine
 10
4.204282629535519
 20
8.854527891229917
 30
0.0
 11
4.198673326889982
 21
8.849053039886751
 31
0.0
  0
LINE
  5
B6
330
1F
100
AcDbEntity
  8
0
  6
Continuous
 62
     7
370
     5
100
AcDbLine
 10
4.204282629535519
 20
8.803015588756569
 30
0.0
 11
4.204282629535519
 21
8.854527891229917
 31
0.0
  0
LINE
  5
B7
330
1F
100
AcDbEntity
  8
0
  6
Continuous
 62
     7
370
     5
100
AcDbLine
 10
4.208209072939532
 20
8.806847917889569
 30
0.0
 11
4.204282629535519
 21
8.803015588756569
 31
0.0
  0
LINE
  5
B8
330
1F
100
AcDbEntity
  8
0
  6
Continuous
 62
     7
370
     5
100
AcDbLine
 10
4.208209072939532
 20
8.858360220362918
 30
0.0
 11
4.208209072939532
 21
8.806847917889569
 31
0.0
  0
LINE
  5
B9
330
1F
100
AcDbEntity
  8
0
  6
Continuous
 62
     7
370
     5
100
AcDbLine
 10
4.21381837558507
 20
8.863835071706084
 30
0.0
 11
4.208209072939532
 21
8.858360220362918
 31
0.0
  0
LINE
  5
BA
330
1F
100
AcDbEntity
  8
0
  6
Continuous
 62
     7
370
     5
100
AcDbLine
 10
4.21381837558507
 20
8.871046919768771
 30
0.0
 11
4.21381837558507
 21
8.863835071706084
 31
0.0
  0
LINE
  5
BB
330
1F
100
AcDbEntity
  8
0
  6
Continuous
 62
     7
370
     5
100
AcDbLine
 10
4.208209072939532
 20
8.865572068425604
 30
0.0
 11
4.21381837558507
 21
8.871046919768771
 31
0.0
  0
LINE
  5
BC
330
1F
100
AcDbEntity
  8
0
  6
Continuous
 62
     7
370
     5
100
AcDbLine
 10
4.208209072939532
 20
8.889267853279763
 30
0.0
 11
4.208209072939532
 21
8.865572068425604
 31
0.0
  0
LINE
  5
BD
330
1F
100
AcDbEntity
  8
0
  6
Continuous
 62
     7
370
     5
100
AcDbLine
 10
4.204282629535519
 20
8.885435524146762
 30
0.0
 11
4.208209072939532
 21
8.889267853279763
 31
0.0
  0
LINE
  5
BE
330
1F
100
AcDbEntity
  8
0
  6
Continuous
 62
     7
370
     5
100
AcDbLine
 10
4.204282629535519
 20
8.861739739292604
 30
0.0
 11
4.204282629535519
 21
8.885435524146762
 31
0.0
  0
LINE
  5
BF
330
1F
100
AcDbEntity
  8
0
  6
Continuous
 62
     7
370
     5
100
AcDbLine
 10
4.149872188530211
 20
8.749909330306207
 30
0.0
 11
4.145945608230467
 21
8.746076867558775
 31
0.0
  0
LINE
  5
C0
330
1F
100
AcDbEntity
  8
0
  6
Continuous
 62
     7
370
     5
100
AcDbLine
 10
4.149872188530211
 20
8.832329265696403
 30
0.0
 11
4.149872188530211
 21
8.749909330306207
 31
0.0
  0
LINE
  5
C1
330
1F
100
AcDbEntity
  8
0
  6
Continuous
 62
     7
370
     5
100
AcDbLine
 10
4.145945608230467
 20
8.82849680294897
 30
0.0
 11
4.149872188530211
 21
8.832329265696403
 31
0.0
  0
LINE
  5
C2
330
1F
100
AcDbEntity
  8
0
  6
Continuous
 62
     7
370
     5
100
AcDbLine
 10
4.145945608230467
 20
8.746076867558775
 30
0.0
 11
4.145945608230467
 21
8.82849680294897
 31
0.0
  0
LINE
  5
C3
330
1F
100
AcDbEntity
  8
0
  6
Continuous
 62
     7
370
     5
100
AcDbLine
 10
4.056027562776312
 20
9.654221462687299
 30
0.0
 11
4.050792122376655
 21
9.649111512357389
 31
0.0
  0
LINE
  5
C4
330
1F
100
AcDbEntity
  8
0
  6
Continuous
 62
     7
370
     5
100
AcDbLine
 10
4.056027562776312
 20
9.703673524494551
 30
0.0
 11
4.056027562776312
 21
9.654221462687299
 31
0.0
  0
LINE
  5
C5
330
1F
100
AcDbEntity
  8
0
  6
Continuous
 62
     7
370
     5
100
AcDbLine
 10
4.060281323877098
 20
9.707825325733995
 30
0.0
 11
4.056027562776312
 21
9.703673524494551
 31
0.0
  0
LINE
  5
C6
330
1F
100
AcDbEntity
  8
0
  6
Continuous
 62
     7
370
     5
100
AcDbLine
 10
4.081713582885829
 20
9.679291805755536
 30
0.0
 11
4.060281323877098
 21
9.707825325733995
 31
0.0
  0
LINE
  5
C7
330
1F
100
AcDbEntity
  8
0
  6
Continuous
 62
     7
370
     5
100
AcDbLine
 10
4.088187655874545
 20
9.685610699464406
 30
0.0
 11
4.081713582885829
 21
9.679291805755536
 31
0.0
  0
LINE
  5
C8
330
1F
100
AcDbEntity
  8
0
  6
Continuous
 62
     7
370
     5
100
AcDbLine
 10
4.066755396865818
 20
9.714144219442866
 30
0.0
 11
4.088187655874545
 21
9.685610699464406
 31
0.0
  0
SPLINE
  5
C9
330
1F
100
AcDbEntity
  8
0
  6
Continuous
 62
     7
370
     5
100
AcDbSpline
210
0.0
220
0.0
230
1.0
 70
     8
 71
     3
 72
    11
 73
     7
 74
     0
 42
0.0000000001
 43
0.0000000001
 40
0.0
 40
0.0
 40
0.0
 40
0.0
 40
0.187120991047268
 40
0.3739806353395412
 40
0.5609106814422466
 40
0.9999999999999998
 40
0.9999999999999998
 40
0.9999999999999998
 40
0.9999999999999998
 10
4.087439794487051
 20
9.763373066867416
 30
0.0
 10
4.087286830596914
 20
9.759835120582899
 30
0.0
 10
4.08698111645708
 20
9.752764169366392
 30
0.0
 10
4.084096724830882
 20
9.74094810369068
 30
0.0
 10
4.077522056369367
 20
9.725527729986636
 30
0.0
 10
4.071193934696784
 20
9.718837053109714
 30
0.0
 10
4.066755396865822
 20
9.714144219442866
 30
0.0
  0
SPLINE
  5
CA
330
1F
100
AcDbEntity
  8
0
  6
Continuous
 62
     7
370
     5
100
AcDbSpline
210
0.0
220
0.0
230
1.0
 70
     8
 71
     3
 72
    11
 73
     7
 74
     0
 42
0.0000000001
 43
0.0000000001
 40
0.0
 40
0.0
 40
0.0
 40
0.0
 40
0.2798097722814185
 40
0.5595063184244883
 40
0.7796102717487756
 40
1.0
 40
1.0
 40
1.0
 40
1.0
 10
4.075683599653841
 20
9.779092881655088
 30
0.0
 10
4.077513982122684
 20
9.779764193993914
 30
0.0
 10
4.081174006388795
 20
9.781106547022357
 30
0.0
 10
4.085023880258197
 20
9.777642932151254
 30
0.0
 10
4.087153121581523
 20
9.771409710307555
 30
0.0
 10
4.087344195531461
 20
9.76605310639858
 30
0.0
 10
4.087439794487051
 20
9.763373066867416
 30
0.0
  0
SPLINE
  5
CB
330
1F
100
AcDbEntity
  8
0
  6
Continuous
 62
     7
370
     5
100
AcDbSpline
210
0.0
220
0.0
230
1.0
 70
     8
 71
     3
 72
     9
 73
     5
 74
     0
 42
0.0000000001
 43
0.0000000001
 40
0.0
 40
0.0
 40
0.0
 40
0.0
 40
0.5602394903529065
 40
1.0
 40
1.0
 40
1.0
 40
1.0
 10
4.06246659045747
 20
9.76765224311187
 30
0.0
 10
4.064945054163535
 20
9.770085910057789
 30
0.0
 10
4.069368990263602
 20
9.774429886139136
 30
0.0
 10
4.073754865100386
 20
9.77766861611173
 30
0.0
 10
4.075683599653841
 20
9.779092881655088
 30
0.0
  0
LINE
  5
CC
330
1F
100
AcDbEntity
  8
0
  6
Continuous
 62
     7
370
     5
100
AcDbLine
 10
4.050792122376655
 20
9.756257604367629
 30
0.0
 11
4.06246659045747
 21
9.76765224311187
 31
0.0
  0
LINE
  5
CD
330
1F
100
AcDbEntity
  8
0
  6
Continuous
 62
     7
370
     5
100
AcDbLine
 10
4.050792122376655
 20
9.649111512357389
 30
0.0
 11
4.050792122376655
 21
9.756257604367629
 31
0.0
  0
LINE
  5
CE
330
1F
100
AcDbEntity
  8
0
  6
Continuous
 62
     7
370
     5
100
AcDbLine
 10
4.160103775588843
 20
9.851959754001105
 30
0.0
 11
4.133062213934578
 21
9.825566360829148
 31
0.0
  0
LINE
  5
CF
330
1F
100
AcDbEntity
  8
0
  6
Continuous
 62
     7
370
     5
100
AcDbLine
 10
4.13377503001451
 20
9.731929770835595
 30
0.0
 11
4.160103775588843
 21
9.851959754001105
 31
0.0
  0
LINE
  5
D0
330
1F
100
AcDbEntity
  8
0
  6
Continuous
 62
     7
370
     5
100
AcDbLine
 10
4.138297517438503
 20
9.731772305362961
 30
0.0
 11
4.13377503001451
 21
9.731929770835595
 31
0.0
  0
LINE
  5
D1
330
1F
100
AcDbEntity
  8
0
  6
Continuous
 62
     7
370
     5
100
AcDbLine
 10
4.168961887761748
 20
9.871594918045104
 30
0.0
 11
4.138297517438503
 21
9.731772305362961
 31
0.0
  0
LINE
  5
D2
330
1F
100
AcDbEntity
  8
0
  6
Continuous
 62
     7
370
     5
100
AcDbLine
 10
4.133062213934578
 20
9.836555735834409
 30
0.0
 11
4.168961887761748
 21
9.871594918045104
 31
0.0
  0
LINE
  5
D3
330
1F
100
AcDbEntity
  8
0
  6
Continuous
 62
     7
370
     5
100
AcDbLine
 10
4.133062213934578
 20
9.825566360829148
 30
0.0
 11
4.133062213934578
 21
9.836555735834409
 31
0.0
  0
SPLINE
  5
D4
330
1F
100
AcDbEntity
  8
0
  6
Continuous
 62
     7
370
     5
100
AcDbSpline
210
0.0
220
0.0
230
1.0
 70
     8
 71
     3
 72
     9
 73
     5
 74
     0
 42
0.0000000001
 43
0.0000000001
 40
0.0
 40
0.0
 40
0.0
 40
0.0
 40
0.5595030456001746
 40
1.0
 40
1.0
 40
1.0
 40
1.0
 10
4.075017465018742
 20
9.875307465703805
 30
0.0
 10
4.074644269001862
 20
9.879128637309463
 30
0.0
 10
4.073977255623089
 20
9.885958218731236
 30
0.0
 10
4.073977308118127
 20
9.893534575610894
 30
0.0
 10
4.073977331242031
 20
9.896871937741828
 30
0.0
  0
SPLINE
  5
D5
330
1F
100
AcDbEntity
  8
0
  6
Continuous
 62
     7
370
     5
100
AcDbSpline
210
0.0
220
0.0
230
1.0
 70
     8
 71
     3
 72
    11
 73
     7
 74
     0
 42
0.0000000001
 43
0.0000000001
 40
0.0
 40
0.0
 40
0.0
 40
0.0
 40
0.280231991582475
 40
0.5599306411200829
 40
0.7799555090908845
 40
1.0
 40
1.0
 40
1.0
 40
1.0
 10
4.093247732840676
 20
9.870499719690691
 30
0.0
 10
4.091031442434469
 20
9.868611164149632
 30
0.0
 10
4.086603079701676
 20
9.864837647396871
 30
0.0
 10
4.081035923635833
 20
9.864762169397669
 30
0.0
 10
4.076929716207486
 20
9.868219522533994
 30
0.0
 10
4.075654901029896
 20
9.872944747747059
 30
0.0
 10
4.075017465018742
 20
9.875307465703805
 30
0.0
  0
SPLINE
  5
D6
330
1F
100
AcDbEntity
  8
0
  6
Continuous
 62
     7
370
     5
100
AcDbSpline
210
0.0
220
0.0
230
1.0
 70
     8
 71
     3
 72
    11
 73
     7
 74
     0
 42
0.0000000001
 43
0.0000000001
 40
0.0
 40
0.0
 40
0.0
 40
0.0
 40
0.2816909875826477
 40
0.5601584455626013
 40
0.7800933269379663
 40
1.0
 40
1.0
 40
1.0
 40
1.0
 10
4.111372864739926
 20
9.933371124848845
 30
0.0
 10
4.111324239228443
 20
9.927354114906352
 30
0.0
 10
4.111227544651295
 20
9.915388950648722
 30
0.0
 10
4.1076993778838
 20
9.896130114234273
 30
0.0
 10
4.100910050774192
 20
9.8795130171333
 30
0.0
 10
4.095801729614705
 20
9.873504023713509
 30
0.0
 10
4.093247732840676
 20
9.870499719690691
 30
0.0
  0
LINE
  5
D7
330
1F
100
AcDbEntity
  8
0
  6
Continuous
 62
     7
370
     5
100
AcDbLine
 10
4.111372864739921
 20
9.998083651262893
 30
0.0
 11
4.111372864739921
 21
9.933371124848845
 31
0.0
  0
LINE
  5
D8
330
1F
100
AcDbEntity
  8
0
  6
Continuous
 62
     7
370
     5
100
AcDbLine
 10
4.106137424340265
 20
9.992973700932983
 30
0.0
 11
4.111372864739921
 21
9.998083651262893
 31
0.0
  0
LINE
  5
D9
330
1F
100
AcDbEntity
  8
0
  6
Continuous
 62
     7
370
     5
100
AcDbLine
 10
4.106137424340265
 20
9.928776360401878
 30
0.0
 11
4.106137424340265
 21
9.992973700932983
 31
0.0
  0
SPLINE
  5
DA
330
1F
100
AcDbEntity
  8
0
  6
Continuous
 62
     7
370
     5
100
AcDbSpline
210
0.0
220
0.0
230
1.0
 70
     8
 71
     3
 72
     9
 73
     5
 74
     0
 42
0.0000000001
 43
0.0000000001
 40
0.0
 40
0.0
 40
0.0
 40
0.0
 40
0.559626758499543
 40
1.0
 40
1.0
 40
1.0
 40
1.0
 10
4.105541517216019
 20
9.911560443152259
 30
0.0
 10
4.105762375829661
 20
9.914866836982934
 30
0.0
 10
4.106157029248718
 20
9.920775049520056
 30
0.0
 10
4.106143418256865
 20
9.926330075572529
 30
0.0
 10
4.106137424340269
 20
9.928776360401878
 30
0.0
  0
SPLINE
  5
DB
330
1F
100
AcDbEntity
  8
0
  6
Continuous
 62
     7
370
     5
100
AcDbSpline
210
0.0
220
0.0
230
1.0
 70
     8
 71
     3
 72
    11
 73
     7
 74
     0
 42
0.0000000001
 43
0.0000000001
 40
0.0
 40
0.0
 40
0.0
 40
0.0
 40
0.2797323596150397
 40
0.5593577249678276
 40
0.7795750177873276
 40
1.0
 40
1.0
 40
1.0
 40
1.0
 10
4.092955597347185
 20
9.881203961498485
 30
0.0
 10
4.094563105806579
 20
9.883094563208201
 30
0.0
 10
4.097777507872732
 20
9.886875043495217
 30
0.0
 10
4.101670206424866
 20
9.895196235259346
 30
0.0
 10
4.104327779271422
 20
9.903746569895252
 30
0.0
 10
4.105136810793315
 20
9.908955000430944
 30
0.0
 10
4.105541517216019
 20
9.911560443152259
 30
0.0
  0
SPLINE
  5
DC
330
1F
100
AcDbEntity
  8
0
  6
Continuous
 62
     7
370
     5
100
AcDbSpline
210
0.0
220
0.0
230
1.0
 70
     8
 71
     3
 72
    10
 73
     6
 74
     0
 42
0.0000000001
 43
0.0000000001
 40
0.0
 40
0.0
 40
0.0
 40
0.0
 40
0.2809812387809447
 40
0.5607694061121573
 40
1.0
 40
1.0
 40
1.0
 40
1.0
 10
4.079446452657327
 20
9.888473437724879
 30
0.0
 10
4.079817406558511
 20
9.885559350705387
 30
0.0
 10
4.080557739257462
 20
9.879743550140304
 30
0.0
 10
4.085547313462348
 20
9.876164426006162
 30
0.0
 10
4.090146232579507
 20
9.879292872010324
 30
0.0
 10
4.092955597347185
 20
9.881203961498485
 30
0.0
  0
SPLINE
  5
DD
330
1F
100
AcDbEntity
  8
0
  6
Continuous
 62
     7
370
     5
100
AcDbSpline
210
0.0
220
0.0
230
1.0
 70
     8
 71
     3
 72
     9
 73
     5
 74
     0
 42
0.0000000001
 43
0.0000000001
 40
0.0
 40
0.0
 40
0.0
 40
0.0
 40
0.5601342049213587
 40
1.0
 40
1.0
 40
1.0
 40
1.0
 10
4.079212771641687
 20
9.90249707395468
 30
0.0
 10
4.079207696000992
 20
9.899828216549469
 30
0.0
 10
4.079198634528488
 20
9.895063541616638
 30
0.0
 10
4.079370746491765
 20
9.890486654024554
 30
0.0
 10
4.079446452657327
 20
9.888473437724879
 30
0.0
  0
LINE
  5
DE
330
1F
100
AcDbEntity
  8
0
  6
Continuous
 62
     7
370
     5
100
AcDbLine
 10
4.079212771641687
 20
9.966694414485786
 30
0.0
 11
4.079212771641687
 21
9.90249707395468
 31
0.0
  0
LINE
  5
DF
330
1F
100
AcDbEntity
  8
0
  6
Continuous
 62
     7
370
     5
100
AcDbLine
 10
4.073977331242031
 20
9.961584464155876
 30
0.0
 11
4.079212771641687
 21
9.966694414485786
 31
0.0
  0
LINE
  5
E0
330
1F
100
AcDbEntity
  8
0
  6
Continuous
 62
     7
370
     5
100
AcDbLine
 10
4.073977331242031
 20
9.896871937741828
 30
0.0
 11
4.073977331242031
 21
9.961584464155876
 31
0.0
  0
LINE
  5
E1
330
1F
100
AcDbEntity
  8
0
  6
Continuous
 62
     7
370
     5
100
AcDbLine
 10
4.17270133159495
 20
9.950796274447064
 30
0.0
 11
4.167466028091029
 21
9.945686457731586
 31
0.0
  0
LINE
  5
E2
330
1F
100
AcDbEntity
  8
0
  6
Continuous
 62
     7
370
     5
100
AcDbLine
 10
4.17270133159495
 20
10.00024833625431
 30
0.0
 11
4.17270133159495
 21
9.950796274447064
 31
0.0
  0
LINE
  5
E3
330
1F
100
AcDbEntity
  8
0
  6
Continuous
 62
     7
370
     5
100
AcDbLine
 10
4.176873365943345
 20
10.00432036967797
 30
0.0
 11
4.17270133159495
 21
10.00024833625431
 31
0.0
  0
SPLINE
  5
E4
330
1F
100
AcDbEntity
  8
0
  6
Continuous
 62
     7
370
     5
100
AcDbSpline
210
0.0
220
0.0
230
1.0
 70
     8
 71
     3
 72
     9
 73
     5
 74
     0
 42
0.0000000001
 43
0.0000000001
 40
0.0
 40
0.0
 40
0.0
 40
0.0
 40
0.5596837088883109
 40
0.9999999999999998
 40
0.9999999999999998
 40
0.9999999999999998
 40
0.9999999999999998
 10
4.191726279144942
 20
10.02057729815859
 30
0.0
 10
4.188965269526532
 20
10.01724634809253
 30
0.0
 10
4.184032108931417
 20
10.01129486154188
 30
0.0
 10
4.179061851334355
 20
10.00645252801628
 30
0.0
 10
4.176873365943345
 20
10.00432036967797
 30
0.0
  0
SPLINE
  5
E5
330
1F
100
AcDbEntity
  8
0
  6
Continuous
 62
     7
370
     5
100
AcDbSpline
210
0.0
220
0.0
230
1.0
 70
     8
 71
     3
 72
    11
 73
     7
 74
     0
 42
0.0000000001
 43
0.0000000001
 40
0.0
 40
0.0
 40
0.0
 40
0.0
 40
0.2800987356964424
 40
0.5593230041284084
 40
0.7794565723045203
 40
1.0
 40
1.0
 40
1.0
 40
1.0
 10
4.203365701918199
 20
10.05913195295599
 30
0.0
 10
4.203227055502416
 20
10.05546289425398
 30
0.0
 10
4.202950195524468
 20
10.04813623163829
 30
0.0
 10
4.200026141922795
 20
10.03668536804277
 30
0.0
 10
4.196052495370149
 20
10.02725858136184
 30
0.0
 10
4.19316924509283
 20
10.02280577303101
 30
0.0
 10
4.191726279144942
 20
10.02057729815859
 30
0.0
  0
SPLINE
  5
E6
330
1F
100
AcDbEntity
  8
0
  6
Continuous
 62
     7
370
     5
100
AcDbSpline
210
0.0
220
0.0
230
1.0
 70
     8
 71
     3
 72
    11
 73
     7
 74
     0
 42
0.0000000001
 43
0.0000000001
 40
0.0
 40
0.0
 40
0.0
 40
0.0
 40
0.2797199823407178
 40
0.5593318916302823
 40
0.77949237427572
 40
0.9999999999999998
 40
0.9999999999999998
 40
0.9999999999999998
 40
0.9999999999999998
 10
4.192193778071958
 20
10.07535766733234
 30
0.0
 10
4.193965566084441
 20
10.07591040086988
 30
0.0
 10
4.197508457558586
 20
10.07701565438998
 30
0.0
 10
4.201182009631389
 20
10.07336658433295
 30
0.0
 10
4.203105898441926
 20
10.06700304456882
 30
0.0
 10
4.203279055290457
 20
10.06175702770375
 30
0.0
 10
4.203365701918199
 20
10.05913195295599
 30
0.0
  0
SPLINE
  5
E7
330
1F
100
AcDbEntity
  8
0
  6
Continuous
 62
     7
370
     5
100
AcDbSpline
210
0.0
220
0.0
230
1.0
 70
     8
 71
     3
 72
     9
 73
     5
 74
     0
 42
0.0000000001
 43
0.0000000001
 40
0.0
 40
0.0
 40
0.0
 40
0.0
 40
0.5603142842727885
 40
1.0
 40
1.0
 40
1.0
 40
1.0
 10
4.178906678260467
 20
10.0639987236037
 30
0.0
 10
4.181400647797335
 20
10.06644747037677
 30
0.0
 10
4.185851666818024
 20
10.07081777975812
 30
0.0
 10
4.190256872193508
 20
10.07397116769872
 30
0.0
 10
4.192193778071958
 20
10.07535766733234
 30
0.0
  0
LINE
  5
E8
330
1F
100
AcDbEntity
  8
0
  6
Continuous
 62
     7
370
     5
100
AcDbLine
 10
4.167466028091029
 20
10.05283229830898
 30
0.0
 11
4.178906678260467
 21
10.0639987236037
 31
0.0
  0
LINE
  5
E9
330
1F
100
AcDbEntity
  8
0
  6
Continuous
 62
     7
370
     5
100
AcDbLine
 10
4.167466028091029
 20
9.945686457731586
 30
0.0
 11
4.167466028091029
 21
10.05283229830898
 31
0.0
  0
LWPOLYLINE
  5
EA
330
1F
100
AcDbEntity
  8
0
  6
Continuous
 62
     7
370
     5
100
AcDbPolyline
 90
       17
 70
   128
 43
0.0
 10
3.92426980075935
 20
9.333308665160707
 10
3.927182941950249
 20
9.309254198236578
 10
3.935478549557673
 20
9.29454801872494
 10
3.947893897343619
 20
9.291429200286817
 10
3.962538865927313
 20
9.300372899248978
 10
3.977183834511012
 20
9.320017076886724
 10
3.989599182296954
 20
9.347371415423172
 10
3.997894789904382
 20
9.37827112961172
 10
4.000807931095277
 20
9.408012226753424
 10
3.997894789904382
 20
9.432066945110392
 10
3.989599182296954
 20
9.44677312462203
 10
3.977183834511012
 20
9.449891943060153
 10
3.962538865927313
 20
9.440948244097992
 10
3.947893897343619
 20
9.421304066460246
 10
3.935478549557673
 20
9.393949727923798
 10
3.927182941950249
 20
9.36305001373525
 10
3.92426980075935
 20
9.333308665160707
  0
LWPOLYLINE
  5
EB
330
1F
100
AcDbEntity
  8
0
  6
Continuous
 62
     7
370
     5
100
AcDbPolyline
 90
       17
 70
   128
 43
0.0
 10
3.865932916350033
 20
10.45497532966012
 10
3.868846057540928
 20
10.43092035987031
 10
3.877141665148356
 20
10.41621418035868
 10
3.889557012934298
 20
10.41309561335339
 10
3.904201981517996
 20
10.42203906088271
 10
3.918846813205955
 20
10.44168335633887
 10
3.931262297887632
 20
10.46903757705691
 10
3.93955790549506
 20
10.49993729124546
 10
3.942471046685959
 20
10.52967889125284
 10
3.93955790549506
 20
10.55373335817696
 10
3.931262297887632
 20
10.5684395376886
 10
3.918846813205955
 20
10.57155797107946
 10
3.904201981517996
 20
10.56261465716457
 10
3.889557012934298
 20
10.54297022809398
 10
3.877141665148356
 20
10.51561614099037
 10
3.868846057540928
 20
10.48471642680183
 10
3.865932916350033
 20
10.45497532966012
  0
LWPOLYLINE
  5
EC
330
1F
100
AcDbEntity
  8
0
  6
Continuous
 62
     7
370
     5
100
AcDbPolyline
 90
       17
 70
   128
 43
0.0
 10
4.099280590883045
 20
10.30771899443783
 10
4.10219373207394
 20
10.28366427608086
 10
4.110489339681368
 20
10.26895809656923
 10
4.12290468746731
 20
10.26583952956394
 10
4.137549656051008
 20
10.27478297709326
 10
4.152194624634703
 20
10.29442740616385
 10
4.164609972420649
 20
10.32178149326746
 10
4.172905580028072
 20
10.352681207456
 10
4.175818721218972
 20
10.38242255603055
 10
4.172905580028072
 20
10.40647727438751
 10
4.164609972420649
 20
10.42118345389915
 10
4.152194624634703
 20
10.42430202090444
 10
4.137549656051008
 20
10.41535857337511
 10
4.12290468746731
 20
10.39571414430453
 10
4.110489339681368
 20
10.36836005720092
 10
4.10219373207394
 20
10.33746034301237
 10
4.099280590883045
 20
10.30771899443783
  0
LWPOLYLINE
  5
ED
330
1F
100
AcDbEntity
  8
0
  6
Continuous
 62
     7
370
     5
100
AcDbPolyline
 90
       17
 70
   128
 43
0.0
 10
4.332628265416058
 20
9.624733204895697
 10
4.335541406606952
 20
9.600678737971566
 10
4.343837014214381
 20
9.585972307027089
 10
4.356252362000322
 20
9.582853740021805
 10
4.370897330584021
 20
9.591797438983965
 10
4.385542299167715
 20
9.611441616621711
 10
4.397957646953661
 20
9.638795703725321
 10
4.406253254561085
 20
9.669695669346706
 10
4.409166395751984
 20
9.699436766488412
 10
4.406253254561085
 20
9.723491484845379
 10
4.397957646953661
 20
9.738197664357016
 10
4.385542299167715
 20
9.74131648279514
 10
4.370897330584021
 20
9.73237278383298
 10
4.356252362000322
 20
9.712728606195232
 10
4.343837014214381
 20
9.685374267658785
 10
4.335541406606952
 20
9.654474553470237
 10
4.332628265416058
 20
9.624733204895697
  0
LWPOLYLINE
  5
EE
330
1F
100
AcDbEntity
  8
0
  6
Continuous
 62
     7
370
     5
100
AcDbPolyline
 90
       17
 70
   128
 43
0.0
 10
4.303459891659263
 20
10.72129618398888
 10
4.306372895954426
 20
10.69724158345032
 10
4.314668640457585
 20
10.68253503468744
 10
4.327083988243532
 20
10.67941646768215
 10
4.341728819931494
 20
10.68836028446272
 10
4.356373788515189
 20
10.70800421066763
 10
4.368789136301135
 20
10.73535829777124
 10
4.377084880804289
 20
10.76625864843989
 10
4.379997885099458
 20
10.79599961196717
 10
4.377084880804289
 20
10.82005421250573
 10
4.368789136301135
 20
10.83476025840294
 10
4.356373788515189
 20
10.8378793282739
 10
4.341728819931494
 20
10.8289353778789
 10
4.327083988243532
 20
10.80929158528842
 10
4.314668640457585
 20
10.78193699531914
 10
4.306372895954426
 20
10.75103714751616
 10
4.303459891659263
 20
10.72129618398888
  0
SPLINE
  5
EF
330
1F
100
AcDbEntity
  8
0
  6
Continuous
 62
     7
370
     5
100
AcDbSpline
210
0.0
220
0.0
230
1.0
 70
     8
 71
     3
 72
    11
 73
     7
 74
     0
 42
0.0000000001
 43
0.0000000001
 40
0.0
 40
0.0
 40
0.0
 40
0.0
 40
0.2791585807337522
 40
0.5590817747281848
 40
0.7794412735066368
 40
1.0
 40
1.0
 40
1.0
 40
1.0
 10
4.155499424516724
 20
9.960256525401932
 30
0.0
 10
4.155172682995942
 20
9.955555704739554
 30
0.0
 10
4.15451830501178
 20
9.946141187902231
 30
0.0
 10
4.149847674942109
 20
9.932266937447822
 30
0.0
 10
4.144469930582258
 20
9.921325047821614
 30
0.0
 10
4.140713947224836
 20
9.91710524777355
 30
0.0
 10
4.138835106980641
 20
9.914994394396856
 30
0.0
  0
SPLINE
  5
F0
330
1F
100
AcDbEntity
  8
0
  6
Continuous
 62
     7
370
     5
100
AcDbSpline
210
0.0
220
0.0
230
1.0
 70
     8
 71
     3
 72
    10
 73
     6
 74
     0
 42
0.0000000001
 43
0.0000000001
 40
0.0
 40
0.0
 40
0.0
 40
0.0
 40
0.5601391432105661
 40
0.7802701767277155
 40
1.0
 40
1.0
 40
1.0
 40
1.0
 10
4.141756598811226
 20
9.981420904245601
 30
0.0
 10
4.145413072672935
 20
9.980015152842534
 30
0.0
 10
4.150506516937382
 20
9.978056950297681
 30
0.0
 10
4.154845694515083
 20
9.969397342584089
 30
0.0
 10
4.155281647064642
 20
9.963301611096307
 30
0.0
 10
4.155499424516729
 20
9.960256525401931
 30
0.0
  0
SPLINE
  5
F1
330
1F
100
AcDbEntity
  8
0
  6
Continuous
 62
     7
370
     5
100
AcDbSpline
210
0.0
220
0.0
230
1.0
 70
     8
 71
     3
 72
     9
 73
     5
 74
     0
 42
0.0000000001
 43
0.0000000001
 40
0.0
 40
0.0
 40
0.0
 40
0.0
 40
0.5599093707121776
 40
0.9999999999999998
 40
0.9999999999999998
 40
0.9999999999999998
 40
0.9999999999999998
 10
4.133915348140483
 20
9.984434892747412
 30
0.0
 10
4.135354394007816
 20
9.983787754791329
 30
0.0
 10
4.137924534717385
 20
9.982631964247469
 30
0.0
 10
4.140585522863484
 20
9.98179100328485
 30
0.0
 10
4.141756598811226
 20
9.981420904245601
 30
0.0
  0
SPLINE
  5
F2
330
1F
100
AcDbEntity
  8
0
  6
Continuous
 62
     7
370
     5
100
AcDbSpline
210
0.0
220
0.0
230
1.0
 70
     8
 71
     3
 72
    10
 73
     6
 74
     0
 42
0.0000000001
 43
0.0000000001
 40
0.0
 40
0.0
 40
0.0
 40
0.0
 40
0.2799306307133491
 40
0.5597727224195727
 40
0.9999999999999998
 40
0.9999999999999998
 40
0.9999999999999998
 40
0.9999999999999998
 10
4.130070494593135
 20
9.994526341251933
 30
0.0
 10
4.130138330893587
 20
9.99309705515378
 30
0.0
 10
4.130273982038612
 20
9.990238935025077
 30
0.0
 10
4.131539606206573
 20
9.986546182726387
 30
0.0
 10
4.133013969681252
 20
9.985235935689438
 30
0.0
 10
4.133915348140483
 20
9.984434892747412
 30
0.0
  0
SPLINE
  5
F3
330
1F
100
AcDbEntity
  8
0
  6
Continuous
 62
     7
370
     5
100
AcDbSpline
210
0.0
220
0.0
230
1.0
 70
     8
 71
     3
 72
    11
 73
     7
 74
     0
 42
0.0000000001
 43
0.0000000001
 40
0.0
 40
0.0
 40
0.0
 40
0.0
 40
0.2803070767250131
 40
0.5598317473321796
 40
0.7799007619911586
 40
1.0
 40
1.0
 40
1.0
 40
1.0
 10
4.138624835135281
 20
10.0164404414208
 30
0.0
 10
4.137440565821237
 20
10.01511577096967
 30
0.0
 10
4.135075332780614
 20
10.01247012754903
 30
0.0
 10
4.132218237473344
 20
10.00636013036043
 30
0.0
 10
4.130358558524199
 20
9.999939934770448
 30
0.0
 10
4.130166520298807
 20
9.996330955026108
 30
0.0
 10
4.130070494593135
 20
9.994526341251933
 30
0.0
  0
SPLINE
  5
F4
330
1F
100
AcDbEntity
  8
0
  6
Continuous
 62
     7
370
     5
100
AcDbSpline
210
0.0
220
0.0
230
1.0
 70
     8
 71
     3
 72
    10
 73
     6
 74
     0
 42
0.0000000001
 43
0.0000000001
 40
0.0
 40
0.0
 40
0.0
 40
0.0
 40
0.5598276491046132
 40
0.7798685204294252
 40
0.9999999999999998
 40
0.9999999999999998
 40
0.9999999999999998
 40
0.9999999999999998
 10
4.150018666964151
 20
10.01382464039789
 30
0.0
 10
4.148373925733525
 20
10.0161164158149
 30
0.0
 10
4.146082717158764
 20
10.01930897607246
 30
0.0
 10
4.141754145542212
 20
10.01905124977374
 30
0.0
 10
4.139668081741056
 20
10.01731083029194
 30
0.0
 10
4.138624835135277
 20
10.0164404414208
 30
0.0
  0
LINE
  5
F5
330
1F
100
AcDbEntity
  8
0
  6
Continuous
 62
     7
370
     5
100
AcDbLine
 10
4.15475156312923
 20
10.02503339250701
 30
0.0
 11
4.150018666964151
 21
10.01382464039789
 31
0.0
  0
SPLINE
  5
F6
330
1F
100
AcDbEntity
  8
0
  6
Continuous
 62
     7
370
     5
100
AcDbSpline
210
0.0
220
0.0
230
1.0
 70
     8
 71
     3
 72
    10
 73
     6
 74
     0
 42
0.0000000001
 43
0.0000000001
 40
0.0
 40
0.0
 40
0.0
 40
0.0
 40
0.2797889569727905
 40
0.5594921379275687
 40
1.0
 40
1.0
 40
1.0
 40
1.0
 10
4.139209106122249
 20
10.028000082821
 30
0.0
 10
4.141006312544952
 20
10.02943671439933
 30
0.0
 10
4.144600174413608
 20
10.03230953712211
 30
0.0
 10
4.150227318060115
 20
10.03149922910122
 30
0.0
 10
4.153034553512062
 20
10.02748726126207
 30
0.0
 10
4.154751563129234
 20
10.02503339250701
 30
0.0
  0
SPLINE
  5
F7
330
1F
100
AcDbEntity
  8
0
  6
Continuous
 62
     7
370
     5
100
AcDbSpline
210
0.0
220
0.0
230
1.0
 70
     8
 71
     3
 72
    11
 73
     7
 74
     0
 42
0.0000000001
 43
0.0000000001
 40
0.0
 40
0.0
 40
0.0
 40
0.0
 40
0.2795292925380164
 40
0.5588332713084205
 40
0.7793444598378139
 40
1.0
 40
1.0
 40
1.0
 40
1.0
 10
4.12483519108921
 20
9.988965705459778
 30
0.0
 10
4.125088849308766
 20
9.99301693445464
 30
0.0
 10
4.125595961287417
 20
10.0011161269631
 30
0.0
 10
4.129571433494525
 20
10.01327372117488
 30
0.0
 10
4.134339683503672
 20
10.02249485510732
 30
0.0
 10
4.137585611222268
 20
10.02616460666366
 30
0.0
 10
4.139209106122249
 20
10.028000082821
 30
0.0
  0
SPLINE
  5
F8
330
1F
100
AcDbEntity
  8
0
  6
Continuous
 62
     7
370
     5
100
AcDbSpline
210
0.0
220
0.0
230
1.0
 70
     8
 71
     3
 72
     9
 73
     5
 74
     0
 42
0.0000000001
 43
0.0000000001
 40
0.0
 40
0.0
 40
0.0
 40
0.0
 40
0.5598231418809695
 40
1.0
 40
1.0
 40
1.0
 40
1.0
 10
4.128095636753854
 20
9.975835792218228
 30
0.0
 10
4.127066137220086
 20
9.977609288320545
 30
0.0
 10
4.125227164414643
 20
9.980777246144437
 30
0.0
 10
4.124954994143882
 20
9.986462977913539
 30
0.0
 10
4.12483519108921
 20
9.988965705459778
 30
0.0
  0
SPLINE
  5
F9
330
1F
100
AcDbEntity
  8
0
  6
Continuous
 62
     7
370
     5
100
AcDbSpline
210
0.0
220
0.0
230
1.0
 70
     8
 71
     3
 72
     9
 73
     5
 74
     0
 42
0.0000000001
 43
0.0000000001
 40
0.0
 40
0.0
 40
0.0
 40
0.0
 40
0.5604056208146412
 40
1.0
 40
1.0
 40
1.0
 40
1.0
 10
4.137654791973684
 20
9.970592019233189
 30
0.0
 10
4.135752862552624
 20
9.971204238758291
 30
0.0
 10
4.1323590182541
 20
9.972296696618032
 30
0.0
 10
4.129397502453616
 20
9.974755094380185
 30
0.0
 10
4.128095636753854
 20
9.975835792218228
 30
0.0
  0
SPLINE
  5
FA
330
1F
100
AcDbEntity
  8
0
  6
Continuous
 62
     7
370
     5
100
AcDbSpline
210
0.0
220
0.0
230
1.0
 70
     8
 71
     3
 72
     9
 73
     5
 74
     0
 42
0.0000000001
 43
0.0000000001
 40
0.0
 40
0.0
 40
0.0
 40
0.0
 40
0.5595062054807866
 40
1.0
 40
1.0
 40
1.0
 40
1.0
 10
4.148172354217835
 20
9.963772621142434
 30
0.0
 10
4.146374902039394
 20
9.965550849557061
 30
0.0
 10
4.143162333240633
 20
9.968729059909698
 30
0.0
 10
4.139338962888119
 20
9.970022338180372
 30
0.0
 10
4.137654791973684
 20
9.970592019233189
 30
0.0
  0
SPLINE
  5
FB
330
1F
100
AcDbEntity
  8
0
  6
Continuous
 62
     7
370
     5
100
AcDbSpline
210
0.0
220
0.0
230
1.0
 70
     8
 71
     3
 72
     9
 73
     5
 74
     0
 42
0.0000000001
 43
0.0000000001
 40
0.0
 40
0.0
 40
0.0
 40
0.0
 40
0.5590087896507902
 40
1.0
 40
1.0
 40
1.0
 40
1.0
 10
4.150264121012804
 20
9.955297065522959
 30
0.0
 10
4.150118934404062
 20
9.957288887626248
 30
0.0
 10
4.149859212890864
 20
9.960852019620162
 30
0.0
 10
4.148688589044641
 20
9.962878819992919
 30
0.0
 10
4.148172354217839
 20
9.963772621142434
 30
0.0
  0
SPLINE
  5
FC
330
1F
100
AcDbEntity
  8
0
  6
Continuous
 62
     7
370
     5
100
AcDbSpline
210
0.0
220
0.0
230
1.0
 70
     8
 71
     3
 72
    11
 73
     7
 74
     0
 42
0.0000000001
 43
0.0000000001
 40
0.0
 40
0.0
 40
0.0
 40
0.0
 40
0.280182737812716
 40
0.5600515518452111
 40
0.7801637672502189
 40
1.0
 40
1.0
 40
1.0
 40
1.0
 10
4.138835106980637
 20
9.925983769402121
 30
0.0
 10
4.1404009857305
 20
9.927811117949405
 30
0.0
 10
4.143530988780333
 20
9.931463767636738
 30
0.0
 10
4.147369653276213
 20
9.939508570660496
 30
0.0
 10
4.149802960612573
 20
9.948060175962551
 30
0.0
 10
4.150110465179296
 20
9.952885778047162
 30
0.0
 10
4.150264121012807
 20
9.955297065522959
 30
0.0
  0
SPLINE
  5
FD
330
1F
100
AcDbEntity
  8
0
  6
Continuous
 62
     7
370
     5
100
AcDbSpline
210
0.0
220
0.0
230
1.0
 70
     8
 71
     3
 72
    10
 73
     6
 74
     0
 42
0.0000000001
 43
0.0000000001
 40
0.0
 40
0.0
 40
0.0
 40
0.0
 40
0.5593258455680232
 40
0.7797870052497266
 40
1.0
 40
1.0
 40
1.0
 40
1.0
 10
4.126027142233439
 20
9.931340568975196
 30
0.0
 10
4.127760849881425
 20
9.92813915915508
 30
0.0
 10
4.130177907318555
 20
9.923675897183574
 30
0.0
 10
4.135120373433326
 20
9.923068109237899
 30
0.0
 10
4.13759732742907
 20
9.925012247626833
 30
0.0
 10
4.138835106980637
 20
9.925983769402121
 30
0.0
  0
LINE
  5
FE
330
1F
100
AcDbEntity
  8
0
  6
Continuous
 62
     7
370
     5
100
AcDbLine
 10
4.121095610360277
 20
9.921096796271104
 30
0.0
 11
4.126027142233439
 21
9.931340568975196
 31
0.0
  0
SPLINE
  5
FF
330
1F
100
AcDbEntity
  8
0
  6
Continuous
 62
     7
370
     5
100
AcDbSpline
210
0.0
220
0.0
230
1.0
 70
     8
 71
     3
 72
    10
 73
     6
 74
     0
 42
0.0000000001
 43
0.0000000001
 40
0.0
 40
0.0
 40
0.0
 40
0.0
 40
0.2798847295154772
 40
0.5596760903787703
 40
1.0
 40
1.0
 40
1.0
 40
1.0
 10
4.138835106980637
 20
9.914994394396858
 30
0.0
 10
4.136676689063295
 20
9.91328483005069
 30
0.0
 10
4.132360573269941
 20
9.909866271663554
 30
0.0
 10
4.12571155451737
 20
9.911452444362547
 30
0.0
 10
4.122847111526986
 20
9.917437286310613
 30
0.0
 10
4.121095610360277
 20
9.921096796271104
 30
0.0
  0
LINE
  5
100
330
1F
100
AcDbEntity
  8
0
  6
Continuous
 62
     7
370
     5
100
AcDbLine
 10
4.174945052653168
 20
9.770288578391287
 30
0.0
 11
4.20261770363497
 21
9.904444026104101
 31
0.0
  0
LINE
  5
101
330
1F
100
AcDbEntity
  8
0
  6
Continuous
 62
     7
370
     5
100
AcDbLine
 10
4.180659628117116
 20
9.775866179232512
 30
0.0
 11
4.174945052653168
 21
9.770288578391287
 31
0.0
  0
LINE
  5
102
330
1F
100
AcDbEntity
  8
0
  6
Continuous
 62
     7
370
     5
100
AcDbLine
 10
4.189529376427294
 20
9.818865028102075
 30
0.0
 11
4.180659628117116
 21
9.775866179232512
 31
0.0
  0
LINE
  5
103
330
1F
100
AcDbEntity
  8
0
  6
Continuous
 62
     7
370
     5
100
AcDbLine
 10
4.215974894061583
 20
9.844676664037958
 30
0.0
 11
4.189529376427294
 21
9.818865028102075
 31
0.0
  0
LINE
  5
104
330
1F
100
AcDbEntity
  8
0
  6
Continuous
 62
     7
370
     5
100
AcDbLine
 10
4.224599325218844
 20
9.818752670637485
 30
0.0
 11
4.215974894061583
 21
9.844676664037958
 31
0.0
  0
LINE
  5
105
330
1F
100
AcDbEntity
  8
0
  6
Continuous
 62
     7
370
     5
100
AcDbLine
 10
4.230290354616777
 20
9.824307289796436
 30
0.0
 11
4.224599325218844
 21
9.818752670637485
 31
0.0
  0
LINE
  5
106
330
1F
100
AcDbEntity
  8
0
  6
Continuous
 62
     7
370
     5
100
AcDbLine
 10
4.203365701918199
 20
9.90517409535948
 30
0.0
 11
4.230290354616777
 21
9.824307289796436
 31
0.0
  0
LINE
  5
107
330
1F
100
AcDbEntity
  8
0
  6
Continuous
 62
     7
370
     5
100
AcDbLine
 10
4.20261770363497
 20
9.904444026104101
 30
0.0
 11
4.203365701918199
 21
9.90517409535948
 31
0.0
  0
LINE
  5
108
330
1F
100
AcDbEntity
  8
0
  6
Continuous
 62
     7
370
     5
100
AcDbLine
 10
4.106137424340265
 20
9.703130223762538
 30
0.0
 11
4.106137424340265
 21
9.799286940767519
 31
0.0
  0
LINE
  5
109
330
1F
100
AcDbEntity
  8
0
  6
Continuous
 62
     7
370
     5
100
AcDbLine
 10
4.111372864739921
 20
9.708240174092448
 30
0.0
 11
4.106137424340265
 21
9.703130223762538
 31
0.0
  0
LINE
  5
10A
330
1F
100
AcDbEntity
  8
0
  6
Continuous
 62
     7
370
     5
100
AcDbLine
 10
4.111372864739921
 20
9.804396891097429
 30
0.0
 11
4.111372864739921
 21
9.708240174092448
 31
0.0
  0
LINE
  5
10B
330
1F
100
AcDbEntity
  8
0
  6
Continuous
 62
     7
370
     5
100
AcDbLine
 10
4.124087329701715
 20
9.816806598680082
 30
0.0
 11
4.111372864739921
 21
9.804396891097429
 31
0.0
  0
LINE
  5
10C
330
1F
100
AcDbEntity
  8
0
  6
Continuous
 62
     7
370
     5
100
AcDbLine
 10
4.124087329701715
 20
9.827795973685343
 30
0.0
 11
4.124087329701715
 21
9.816806598680082
 31
0.0
  0
LINE
  5
10D
330
1F
100
AcDbEntity
  8
0
  6
Continuous
 62
     7
370
     5
100
AcDbLine
 10
4.09342295937847
 20
9.797866608190126
 30
0.0
 11
4.124087329701715
 21
9.827795973685343
 31
0.0
  0
LINE
  5
10E
330
1F
100
AcDbEntity
  8
0
  6
Continuous
 62
     7
370
     5
100
AcDbLine
 10
4.09342295937847
 20
9.786877233184863
 30
0.0
 11
4.09342295937847
 21
9.797866608190126
 31
0.0
  0
LINE
  5
10F
330
1F
100
AcDbEntity
  8
0
  6
Continuous
 62
     7
370
     5
100
AcDbLine
 10
4.106137424340265
 20
9.799286940767519
 30
0.0
 11
4.09342295937847
 21
9.786877233184863
 31
0.0
  0
LINE
  5
110
330
1F
100
AcDbEntity
  8
0
  6
Continuous
 62
     7
370
     5
100
AcDbLine
 10
4.115655373944566
 20
8.716512670305677
 30
0.0
 11
4.111728793644827
 21
8.712680207558245
 31
0.0
  0
LINE
  5
111
330
1F
100
AcDbEntity
  8
0
  6
Continuous
 62
     7
370
     5
100
AcDbLine
 10
4.115655373944566
 20
8.753601528086489
 30
0.0
 11
4.115655373944566
 21
8.716512670305677
 31
0.0
  0
LINE
  5
112
330
1F
100
AcDbEntity
  8
0
  6
Continuous
 62
     7
370
     5
100
AcDbLine
 10
4.118784262810128
 20
8.7566554195398
 30
0.0
 11
4.115655373944566
 21
8.753601528086489
 31
0.0
  0
SPLINE
  5
113
330
1F
100
AcDbEntity
  8
0
  6
Continuous
 62
     7
370
     5
100
AcDbSpline
210
0.0
220
0.0
230
1.0
 70
     8
 71
     3
 72
     9
 73
     5
 74
     0
 42
0.0000000001
 43
0.0000000001
 40
0.0
 40
0.0
 40
0.0
 40
0.0
 40
0.5596886163967522
 40
1.0
 40
1.0
 40
1.0
 40
1.0
 10
4.129924016159194
 20
8.768848182707484
 30
0.0
 10
4.127853222725554
 20
8.766350105739764
 30
0.0
 10
4.12415332000648
 20
8.761886772210131
 30
0.0
 10
4.120425614138524
 20
8.758254673811208
 30
0.0
 10
4.118784262810133
 20
8.7566554195398
 30
0.0
  0
SPLINE
  5
114
330
1F
100
AcDbEntity
  8
0
  6
Continuous
 62
     7
370
     5
100
AcDbSpline
210
0.0
220
0.0
230
1.0
 70
     8
 71
     3
 72
    11
 73
     7
 74
     0
 42
0.0000000001
 43
0.0000000001
 40
0.0
 40
0.0
 40
0.0
 40
0.0
 40
0.2800955792271784
 40
0.5593222781272428
 40
0.7794584533089832
 40
1.0
 40
1.0
 40
1.0
 40
1.0
 10
4.138653583239135
 20
8.79776423666374
 30
0.0
 10
4.138549624453229
 20
8.795012494274059
 30
0.0
 10
4.138342029370412
 20
8.789517545633806
 30
0.0
 10
4.136148768909264
 20
8.78092943824072
 30
0.0
 10
4.133168594317929
 20
8.773859387521133
 30
0.0
 10
4.131006205259705
 20
8.770519608379617
 30
0.0
 10
4.129924016159194
 20
8.768848182707484
 30
0.0
  0
SPLINE
  5
115
330
1F
100
AcDbEntity
  8
0
  6
Continuous
 62
     7
370
     5
100
AcDbSpline
210
0.0
220
0.0
230
1.0
 70
     8
 71
     3
 72
    11
 73
     7
 74
     0
 42
0.0000000001
 43
0.0000000001
 40
0.0
 40
0.0
 40
0.0
 40
0.0
 40
0.279719605479147
 40
0.5593359954637834
 40
0.7794939926251164
 40
1.0
 40
1.0
 40
1.0
 40
1.0
 10
4.130274606130522
 20
8.809933551900602
 30
0.0
 10
4.131603414253222
 20
8.81034799121636
 30
0.0
 10
4.134260540173354
 20
8.811176716921313
 30
0.0
 10
4.137015972844283
 20
8.808440528544084
 30
0.0
 10
4.138458542295127
 20
8.8036672437262
 30
0.0
 10
4.138588535370876
 20
8.7997329413772
 30
0.0
 10
4.13865358323914
 20
8.79776423666374
 30
0.0
  0
SPLINE
  5
116
330
1F
100
AcDbEntity
  8
0
  6
Continuous
 62
     7
370
     5
100
AcDbSpline
210
0.0
220
0.0
230
1.0
 70
     8
 71
     3
 72
     9
 73
     5
 74
     0
 42
0.0000000001
 43
0.0000000001
 40
0.0
 40
0.0
 40
0.0
 40
0.0
 40
0.5603177642774887
 40
1.0
 40
1.0
 40
1.0
 40
1.0
 10
4.120309281271904
 20
8.801414469820546
 30
0.0
 10
4.122179769786589
 20
8.803250989536321
 30
0.0
 10
4.125518033596761
 20
8.806528629177366
 30
0.0
 10
4.128821938038822
 20
8.808893680741352
 30
0.0
 10
4.130274606130522
 20
8.809933551900602
 30
0.0
  0
LINE
  5
117
330
1F
100
AcDbEntity
  8
0
  6
Continuous
 62
     7
370
     5
100
AcDbLine
 10
4.111728793644827
 20
8.793039650849506
 30
0.0
 11
4.120309281271904
 21
8.801414469820546
 31
0.0
  0
LINE
  5
118
330
1F
100
AcDbEntity
  8
0
  6
Continuous
 62
     7
370
     5
100
AcDbLine
 10
4.111728793644827
 20
8.712680207558245
 30
0.0
 11
4.111728793644827
 21
8.793039650849506
 31
0.0
  0
LINE
  5
119
330
1F
100
AcDbEntity
  8
0
  6
Continuous
 62
     7
370
     5
100
AcDbLine
 10
4.187454584703176
 20
8.834449130166364
 30
0.0
 11
4.187454584703176
 21
8.845315051648674
 31
0.0
  0
SPLINE
  5
11A
330
1F
100
AcDbEntity
  8
0
  6
Continuous
 62
     7
370
     5
100
AcDbSpline
210
0.0
220
0.0
230
1.0
 70
     8
 71
     3
 72
     9
 73
     5
 74
     0
 42
0.0000000001
 43
0.0000000001
 40
0.0
 40
0.0
 40
0.0
 40
0.0
 40
0.7952236816393259
 40
1.0
 40
1.0
 40
1.0
 40
1.0
 10
4.174518074863013
 20
8.83371899322352
 30
0.0
 10
4.177479607589511
 20
8.836269919098672
 30
0.0
 10
4.181203758158565
 20
8.839477728340336
 30
0.0
 10
4.183688476222988
 20
8.83725381780667
 30
0.0
 10
4.184197287640383
 20
8.836798413595223
 30
0.0
  0
SPLINE
  5
11B
330
1F
100
AcDbEntity
  8
0
  6
Continuous
 62
     7
370
     5
100
AcDbSpline
210
0.0
220
0.0
230
1.0
 70
     8
 71
     3
 72
    11
 73
     7
 74
     0
 42
0.0000000001
 43
0.0000000001
 40
0.0
 40
0.0
 40
0.0
 40
0.0
 40
0.2794132896844625
 40
0.559193699097936
 40
0.7795502992257534
 40
1.0
 40
1.0
 40
1.0
 40
1.0
 10
4.157725212233962
 20
8.787097114470316
 30
0.0
 10
4.158029107938651
 20
8.79189380573457
 30
0.0
 10
4.158637298635087
 20
8.801493490611827
 30
0.0
 10
4.163268987582564
 20
8.815808810099683
 30
0.0
 10
4.168740040672064
 20
8.827172402988589
 30
0.0
 10
4.172591792295862
 20
8.831536489239097
 30
0.0
 10
4.174518074863013
 20
8.83371899322352
 30
0.0
  0
SPLINE
  5
11C
330
1F
100
AcDbEntity
  8
0
  6
Continuous
 62
     7
370
     5
100
AcDbSpline
210
0.0
220
0.0
230
1.0
 70
     8
 71
     3
 72
    11
 73
     7
 74
     0
 42
0.0000000001
 43
0.0000000001
 40
0.0
 40
0.0
 40
0.0
 40
0.0
 40
0.2795730273493842
 40
0.5593322811577006
 40
0.7795887142594196
 40
1.0
 40
1.0
 40
1.0
 40
1.0
 10
4.174395416286555
 20
8.772814380624815
 30
0.0
 10
4.171938167335222
 20
8.770944049313705
 30
0.0
 10
4.167022032633844
 20
8.767202140844627
 30
0.0
 10
4.16158315474644
 20
8.770199828247527
 30
0.0
 10
4.158222839518179
 20
8.776939990853458
 30
0.0
 10
4.157891126850482
 20
8.783710613522172
 30
0.0
 10
4.157725212233962
 20
8.787097114470316
 30
0.0
  0
SPLINE
  5
11D
330
1F
100
AcDbEntity
  8
0
  6
Continuous
 62
     7
370
     5
100
AcDbSpline
210
0.0
220
0.0
230
1.0
 70
     8
 71
     3
 72
     9
 73
     5
 74
     0
 42
0.0000000001
 43
0.0000000001
 40
0.0
 40
0.0
 40
0.0
 40
0.0
 40
0.5587318859443755
 40
0.9999999999999998
 40
0.9999999999999998
 40
0.9999999999999998
 40
0.9999999999999998
 10
4.187454584703176
 20
8.796748536293215
 30
0.0
 10
4.18538324297214
 20
8.791113591002849
 30
0.0
 10
4.181676023493261
 20
8.781028350779191
 30
0.0
 10
4.176624494818132
 20
8.775329223688077
 30
0.0
 10
4.174395416286555
 20
8.772814380624815
 30
0.0
  0
LINE
  5
11E
330
1F
100
AcDbEntity
  8
0
  6
Continuous
 62
     7
370
     5
100
AcDbLine
 10
4.187454584703176
 20
8.786590901112637
 30
0.0
 11
4.187454584703176
 21
8.796748536293215
 31
0.0
  0
LINE
  5
11F
330
1F
100
AcDbEntity
  8
0
  6
Continuous
 62
     7
370
     5
100
AcDbLine
 10
4.191381165002919
 20
8.790423363860069
 30
0.0
 11
4.187454584703176
 21
8.786590901112637
 31
0.0
  0
LINE
  5
120
330
1F
100
AcDbEntity
  8
0
  6
Continuous
 62
     7
370
     5
100
AcDbLine
 10
4.191381165002919
 20
8.849147514396106
 30
0.0
 11
4.191381165002919
 21
8.790423363860069
 31
0.0
  0
LINE
  5
121
330
1F
100
AcDbEntity
  8
0
  6
Continuous
 62
     7
370
     5
100
AcDbLine
 10
4.187454584703176
 20
8.845315051648674
 30
0.0
 11
4.191381165002919
 21
8.849147514396106
 31
0.0
  0
SPLINE
  5
122
330
1F
100
AcDbEntity
  8
0
  6
Continuous
 62
     7
370
     5
100
AcDbSpline
210
0.0
220
0.0
230
1.0
 70
     8
 71
     3
 72
    11
 73
     7
 74
     0
 42
0.0000000001
 43
0.0000000001
 40
0.0
 40
0.0
 40
0.0
 40
0.0
 40
0.2799622299151085
 40
0.5593583548798762
 40
0.7795259443559491
 40
1.0
 40
1.0
 40
1.0
 40
1.0
 10
4.22391525724277
 20
8.849994404316895
 30
0.0
 10
4.224116419562943
 20
8.84700886417681
 30
0.0
 10
4.224518337437734
 20
8.84104382088619
 30
0.0
 10
4.227612687864837
 20
8.836867480737994
 30
0.0
 10
4.231494358123453
 20
8.836371291516616
 30
0.0
 10
4.234218039335233
 20
8.838619952769628
 30
0.0
 10
4.235580827100961
 20
8.839745065367841
 30
0.0
  0
LINE
  5
123
330
1F
100
AcDbEntity
  8
0
  6
Continuous
 62
     7
370
     5
100
AcDbLine
 10
4.252522769182872
 20
8.877916212974257
 30
0.0
 11
4.22391525724277
 21
8.849994404316895
 31
0.0
  0
SPLINE
  5
124
330
1F
100
AcDbEntity
  8
0
  6
Continuous
 62
     7
370
     5
100
AcDbSpline
210
0.0
220
0.0
230
1.0
 70
     8
 71
     3
 72
     9
 73
     5
 74
     0
 42
0.0000000001
 43
0.0000000001
 40
0.0
 40
0.0
 40
0.0
 40
0.0
 40
0.5589006713150879
 40
1.0
 40
1.0
 40
1.0
 40
1.0
 10
4.24904315345025
 20
8.894899638514083
 30
0.0
 10
4.250181951818401
 20
8.892477975711534
 30
0.0
 10
4.252219520256946
 20
8.888145071983126
 30
0.0
 10
4.252429949142653
 20
8.881047116411803
 30
0.0
 10
4.252522769182872
 20
8.877916212974257
 30
0.0
  0
SPLINE
  5
125
330
1F
100
AcDbEntity
  8
0
  6
Continuous
 62
     7
370
     5
100
AcDbSpline
210
0.0
220
0.0
230
1.0
 70
     8
 71
     3
 72
     9
 73
     5
 74
     0
 42
0.0000000001
 43
0.0000000001
 40
0.0
 40
0.0
 40
0.0
 40
0.0
 40
0.7852029814137739
 40
1.0
 40
1.0
 40
1.0
 40
1.0
 10
4.23616810979405
 20
8.893891317285399
 30
0.0
 10
4.239078194139678
 20
8.89636545112533
 30
0.0
 10
4.242784349636417
 20
8.899516399222191
 30
0.0
 10
4.245319033690087
 20
8.897428451789748
 30
0.0
 10
4.245863476267875
 20
8.896979966906295
 30
0.0
  0
SPLINE
  5
126
330
1F
100
AcDbEntity
  8
0
  6
Continuous
 62
     7
370
     5
100
AcDbSpline
210
0.0
220
0.0
230
1.0
 70
     8
 71
     3
 72
     9
 73
     5
 74
     0
 42
0.0000000001
 43
0.0000000001
 40
0.0
 40
0.0
 40
0.0
 40
0.0
 40
0.5585745401814196
 40
1.0
 40
1.0
 40
1.0
 40
1.0
 10
4.223669803194117
 20
8.870745955467587
 30
0.0
 10
4.225632805389271
 20
8.876211220208602
 30
0.0
 10
4.229147111992853
 20
8.885995527132511
 30
0.0
 10
4.234017983222005
 20
8.891473292284432
 30
0.0
 10
4.23616810979405
 20
8.893891317285399
 30
0.0
  0
SPLINE
  5
127
330
1F
100
AcDbEntity
  8
0
  6
Continuous
 62
     7
370
     5
100
AcDbSpline
210
0.0
220
0.0
230
1.0
 70
     8
 71
     3
 72
     9
 73
     5
 74
     0
 42
0.0000000001
 43
0.0000000001
 40
0.0
 40
0.0
 40
0.0
 40
0.0
 40
0.5594272664570967
 40
1.0
 40
1.0
 40
1.0
 40
1.0
 10
4.219988676943026
 20
8.847546330769793
 30
0.0
 10
4.220183111081759
 20
8.851724816663443
 30
0.0
 10
4.220530670363175
 20
8.859194037676052
 30
0.0
 10
4.222709757026317
 20
8.867213013408797
 30
0.0
 10
4.223669803194117
 20
8.870745955467587
 30
0.0
  0
SPLINE
  5
128
330
1F
100
AcDbEntity
  8
0
  6
Continuous
 62
     7
370
     5
100
AcDbSpline
210
0.0
220
0.0
230
1.0
 70
     8
 71
     3
 72
    11
 73
     7
 74
     0
 42
0.0000000001
 43
0.0000000001
 40
0.0
 40
0.0
 40
0.0
 40
0.0
 40
0.27987689209045
 40
0.5588473004211023
 40
0.7794490333100309
 40
1.0
 40
1.0
 40
1.0
 40
1.0
 10
4.23607159830253
 20
8.833012225043169
 30
0.0
 10
4.23363905342558
 20
8.831039164130388
 30
0.0
 10
4.228781842358677
 20
8.827099432784793
 30
0.0
 10
4.223554151695839
 20
8.830572730146066
 30
0.0
 10
4.220508557996386
 20
8.837628122468498
 30
0.0
 10
4.220161957332315
 20
8.844240514979142
 30
0.0
 10
4.219988676943026
 20
8.847546330769793
 30
0.0
  0
SPLINE
  5
129
330
1F
100
AcDbEntity
  8
0
  6
Continuous
 62
     7
370
     5
100
AcDbSpline
210
0.0
220
0.0
230
1.0
 70
     8
 71
     3
 72
    10
 73
     6
 74
     0
 42
0.0000000001
 43
0.0000000001
 40
0.0
 40
0.0
 40
0.0
 40
0.0
 40
0.2808702129144234
 40
0.5613322212716979
 40
1.0
 40
1.0
 40
1.0
 40
1.0
 10
4.250839909941347
 20
8.863636927811032
 30
0.0
 10
4.249945073144215
 20
8.860110540458085
 30
0.0
 10
4.248156700066862
 20
8.85306289085026
 30
0.0
 10
4.243138388874514
 20
8.841321566270842
 30
0.0
 10
4.238749072685345
 20
8.836160478560595
 30
0.0
 10
4.236071598302535
 20
8.833012225043169
 30
0.0
  0
LINE
  5
12A
330
1F
100
AcDbEntity
  8
0
  6
Continuous
 62
     7
370
     5
100
AcDbLine
 10
4.247351669777564
 20
8.863596721265674
 30
0.0
 11
4.250839909941347
 21
8.863636927811032
 31
0.0
  0
SPLINE
  5
12B
330
1F
100
AcDbEntity
  8
0
  6
Continuous
 62
     7
370
     5
100
AcDbSpline
210
0.0
220
0.0
230
1.0
 70
     8
 71
     3
 72
    10
 73
     6
 74
     0
 42
0.0000000001
 43
0.0000000001
 40
0.0
 40
0.0
 40
0.0
 40
0.0
 40
0.2805074254929391
 40
0.5609950800115405
 40
0.9999999999999998
 40
0.9999999999999998
 40
0.9999999999999998
 40
0.9999999999999998
 10
4.235580827100961
 20
8.839745065367841
 30
0.0
 10
4.23690211189274
 20
8.841242421901137
 30
0.0
 10
4.239544588348317
 20
8.844237029429708
 30
0.0
 10
4.244036999109211
 20
8.852111006571902
 30
0.0
 10
4.246095597374769
 20
8.85924428607776
 30
0.0
 10
4.247351669777564
 20
8.863596721265674
 30
0.0
  0
SPLINE
  5
12C
330
1F
100
AcDbEntity
  8
0
  6
Continuous
 62
     7
370
     5
100
AcDbSpline
210
0.0
220
0.0
230
1.0
 70
     8
 71
     3
 72
    11
 73
     7
 74
     0
 42
0.0000000001
 43
0.0000000001
 40
0.0
 40
0.0
 40
0.0
 40
0.0
 40
0.2798003292252369
 40
0.5597210787582043
 40
0.7799172188341267
 40
1.0
 40
1.0
 40
1.0
 40
1.0
 10
4.306635188178193
 20
8.974001926884193
 30
0.0
 10
4.306122143235771
 20
8.973602223352513
 30
0.0
 10
4.305095832546936
 20
8.972802644264975
 30
0.0
 10
4.303915467272175
 20
8.97325623774887
 30
0.0
 10
4.303140991710399
 20
8.974519459518097
 30
0.0
 10
4.30305140947416
 20
8.975913029872844
 30
0.0
 10
4.303006629888443
 20
8.976609635648468
 30
0.0
  0
SPLINE
  5
12D
330
1F
100
AcDbEntity
  8
0
  6
Continuous
 62
     7
370
     5
100
AcDbSpline
210
0.0
220
0.0
230
1.0
 70
     8
 71
     3
 72
    11
 73
     7
 74
     0
 42
0.0000000001
 43
0.0000000001
 40
0.0
 40
0.0
 40
0.0
 40
0.0
 40
0.2791505894820774
 40
0.5588596468636719
 40
0.7793629288757697
 40
1.0
 40
1.0
 40
1.0
 40
1.0
 10
4.310298791775506
 20
8.9837270092018
 30
0.0
 10
4.310223310131539
 20
8.982705714996196
 30
0.0
 10
4.310072195835218
 20
8.980661083386621
 30
0.0
 10
4.309025240611324
 20
8.97768450751445
 30
0.0
 10
4.307853767787245
 20
8.975353221771566
 30
0.0
 10
4.307041463499798
 20
8.974452449575426
 30
0.0
 10
4.306635188178193
 20
8.974001926884193
 30
0.0
  0
SPLINE
  5
12E
330
1F
100
AcDbEntity
  8
0
  6
Continuous
 62
     7
370
     5
100
AcDbSpline
210
0.0
220
0.0
230
1.0
 70
     8
 71
     3
 72
    11
 73
     7
 74
     0
 42
0.0000000001
 43
0.0000000001
 40
0.0
 40
0.0
 40
0.0
 40
0.0
 40
0.2798598077628851
 40
0.5598502933197653
 40
0.7798960206918695
 40
1.0
 40
1.0
 40
1.0
 40
1.0
 10
4.306635188178193
 20
8.986364879477797
 30
0.0
 10
4.307154769635864
 20
8.986774658675011
 30
0.0
 10
4.308194175164681
 20
8.987594408411819
 30
0.0
 10
4.309391518822581
 20
8.987141278167646
 30
0.0
 10
4.310169638652918
 20
8.985849567994815
 30
0.0
 10
4.310255736936398
 20
8.984434591221518
 30
0.0
 10
4.31029879177551
 20
8.9837270092018
 30
0.0
  0
SPLINE
  5
12F
330
1F
100
AcDbEntity
  8
0
  6
Continuous
 62
     7
370
     5
100
AcDbSpline
210
0.0
220
0.0
230
1.0
 70
     8
 71
     3
 72
    11
 73
     7
 74
     0
 42
0.0000000001
 43
0.0000000001
 40
0.0
 40
0.0
 40
0.0
 40
0.0
 40
0.2793021454689128
 40
0.5588963730875808
 40
0.7794447729789555
 40
1.0
 40
1.0
 40
1.0
 40
1.0
 10
4.303006629888447
 20
8.976609635648468
 30
0.0
 10
4.303078286073768
 20
8.977627922004858
 30
0.0
 10
4.303221673379353
 20
8.97966555959764
 30
0.0
 10
4.304247794799321
 20
8.982658878082599
 30
0.0
 10
4.30541730164601
 20
8.985000747961088
 30
0.0
 10
4.306229221812009
 20
8.985910164280427
 30
0.0
 10
4.306635188178193
 20
8.986364879477797
 30
0.0
  0
LINE
  5
130
330
1F
100
AcDbEntity
  8
0
  6
Continuous
 62
     7
370
     5
100
AcDbLine
 10
4.321517397066581
 20
8.917440315864821
 30
0.0
 11
4.317590816766839
 21
8.91360785311739
 31
0.0
  0
LINE
  5
131
330
1F
100
AcDbEntity
  8
0
  6
Continuous
 62
     7
370
     5
100
AcDbLine
 10
4.321517397066581
 20
8.938673064648066
 30
0.0
 11
4.321517397066581
 21
8.917440315864821
 31
0.0
  0
SPLINE
  5
132
330
1F
100
AcDbEntity
  8
0
  6
Continuous
 62
     7
370
     5
100
AcDbSpline
210
0.0
220
0.0
230
1.0
 70
     8
 71
     3
 72
     9
 73
     5
 74
     0
 42
0.0000000001
 43
0.0000000001
 40
0.0
 40
0.0
 40
0.0
 40
0.0
 40
0.5596491649678775
 40
1.0
 40
1.0
 40
1.0
 40
1.0
 10
4.322122065517718
 20
8.955022798381516
 30
0.0
 10
4.321903289272024
 20
8.951881969398337
 30
0.0
 10
4.321512372498824
 20
8.946269830258707
 30
0.0
 10
4.321515860932081
 20
8.940995583578056
 30
0.0
 10
4.321517397066581
 20
8.938673064648066
 30
0.0
  0
SPLINE
  5
133
330
1F
100
AcDbEntity
  8
0
  6
Continuous
 62
     7
370
     5
100
AcDbSpline
210
0.0
220
0.0
230
1.0
 70
     8
 71
     3
 72
    11
 73
     7
 74
     0
 42
0.0000000001
 43
0.0000000001
 40
0.0
 40
0.0
 40
0.0
 40
0.0
 40
0.2795575443025964
 40
0.5593323503991398
 40
0.7796775571736598
 40
0.9999999999999998
 40
0.9999999999999998
 40
0.9999999999999998
 40
0.9999999999999998
 10
4.332998979060088
 20
8.981189366113884
 30
0.0
 10
4.331613809344055
 20
8.979567115218904
 30
0.0
 10
4.328842393409267
 20
8.976321352675489
 30
0.0
 10
4.325585946435131
 20
8.969032995272398
 30
0.0
 10
4.323221629319434
 20
8.961763165519981
 30
0.0
 10
4.322488574162271
 20
8.957269510050126
 30
0.0
 10
4.322122065517718
 20
8.955022798381516
 30
0.0
  0
SPLINE
  5
134
330
1F
100
AcDbEntity
  8
0
  6
Continuous
 62
     7
370
     5
100
AcDbSpline
210
0.0
220
0.0
230
1.0
 70
     8
 71
     3
 72
    10
 73
     6
 74
     0
 42
0.0000000001
 43
0.0000000001
 40
0.0
 40
0.0
 40
0.0
 40
0.0
 40
0.2812060248581831
 40
0.5613038574451855
 40
1.0
 40
1.0
 40
1.0
 40
1.0
 10
4.341246399369615
 20
8.977680985089866
 30
0.0
 10
4.340930799107051
 20
8.979239965507941
 30
0.0
 10
4.340300842316902
 20
8.982351782627743
 30
0.0
 10
4.337464640388125
 20
8.984733498212916
 30
0.0
 10
4.334691493206524
 20
8.982532614800661
 30
0.0
 10
4.332998979060088
 20
8.981189366113884
 30
0.0
  0
SPLINE
  5
135
330
1F
100
AcDbEntity
  8
0
  6
Continuous
 62
     7
370
     5
100
AcDbSpline
210
0.0
220
0.0
230
1.0
 70
     8
 71
     3
 72
     9
 73
     5
 74
     0
 42
0.0000000001
 43
0.0000000001
 40
0.0
 40
0.0
 40
0.0
 40
0.0
 40
0.5602615979174118
 40
1.0
 40
1.0
 40
1.0
 40
1.0
 10
4.341710886590514
 20
8.964773197900621
 30
0.0
 10
4.341719159373013
 20
8.967288686740488
 30
0.0
 10
4.341733925301152
 20
8.971778533714152
 30
0.0
 10
4.341395304110782
 20
8.975878203047955
 30
0.0
 10
4.341246399369615
 20
8.977680985089866
 30
0.0
  0
LINE
  5
136
330
1F
100
AcDbEntity
  8
0
  6
Continuous
 62
     7
370
     5
100
AcDbLine
 10
4.341710886590514
 20
8.93714978070022
 30
0.0
 11
4.341710886590514
 21
8.964773197900621
 31
0.0
  0
LINE
  5
137
330
1F
100
AcDbEntity
  8
0
  6
Continuous
 62
     7
370
     5
100
AcDbLine
 10
4.345637466890257
 20
8.940982243447653
 30
0.0
 11
4.341710886590514
 21
8.93714978070022
 31
0.0
  0
LINE
  5
138
330
1F
100
AcDbEntity
  8
0
  6
Continuous
 62
     7
370
     5
100
AcDbLine
 10
4.345637466890257
 20
8.970972146509575
 30
0.0
 11
4.345637466890257
 21
8.940982243447653
 31
0.0
  0
SPLINE
  5
139
330
1F
100
AcDbEntity
  8
0
  6
Continuous
 62
     7
370
     5
100
AcDbSpline
210
0.0
220
0.0
230
1.0
 70
     8
 71
     3
 72
    11
 73
     7
 74
     0
 42
0.0000000001
 43
0.0000000001
 40
0.0
 40
0.0
 40
0.0
 40
0.0
 40
0.1870302254626759
 40
0.3738516338715561
 40
0.5605761689595741
 40
1.0
 40
1.0
 40
1.0
 40
1.0
 10
4.333682636348965
 20
8.989068484649001
 30
0.0
 10
4.33511600582752
 20
8.99023273384232
 30
0.0
 10
4.337981144444396
 20
8.992559932358387
 30
0.0
 10
4.341746205461912
 20
8.992016896526598
 30
0.0
 10
4.34557133654349
 20
8.98637207500055
 30
0.0
 10
4.345610195861227
 20
8.977322814810825
 30
0.0
 10
4.345637466890257
 20
8.970972146509575
 30
0.0
  0
SPLINE
  5
13A
330
1F
100
AcDbEntity
  8
0
  6
Continuous
 62
     7
370
     5
100
AcDbSpline
210
0.0
220
0.0
230
1.0
 70
     8
 71
     3
 72
     9
 73
     5
 74
     0
 42
0.0000000001
 43
0.0000000001
 40
0.0
 40
0.0
 40
0.0
 40
0.0
 40
0.559163448624023
 40
1.0
 40
1.0
 40
1.0
 40
1.0
 10
4.321517397066581
 20
8.965572103845168
 30
0.0
 10
4.323383274775247
 20
8.971086488600436
 30
0.0
 10
4.326720184069396
 20
8.980948336274561
 30
0.0
 10
4.331552413146957
 20
8.986584054195992
 30
0.0
 10
4.333682636348965
 20
8.989068484649001
 30
0.0
  0
LINE
  5
13B
330
1F
100
AcDbEntity
  8
0
  6
Continuous
 62
     7
370
     5
100
AcDbLine
 10
4.321517397066581
 20
8.976164466400858
 30
0.0
 11
4.321517397066581
 21
8.965572103845168
 31
0.0
  0
LINE
  5
13C
330
1F
100
AcDbEntity
  8
0
  6
Continuous
 62
     7
370
     5
100
AcDbLine
 10
4.317590816766839
 20
8.972332003653427
 30
0.0
 11
4.321517397066581
 21
8.976164466400858
 31
0.0
  0
LINE
  5
13D
330
1F
100
AcDbEntity
  8
0
  6
Continuous
 62
     7
370
     5
100
AcDbLine
 10
4.317590816766839
 20
8.91360785311739
 30
0.0
 11
4.317590816766839
 21
8.972332003653427
 31
0.0
  0
LINE
  5
13E
330
1F
100
AcDbEntity
  8
0
  6
Continuous
 62
     7
370
     5
100
AcDbLine
 10
4.475699638362551
 20
9.076498506889798
 30
0.0
 11
4.411528942306141
 21
9.013865940295113
 31
0.0
  0
LINE
  5
13F
330
1F
100
AcDbEntity
  8
0
  6
Continuous
 62
     7
370
     5
100
AcDbLine
 10
4.411528942306141
 20
9.013865940295113
 30
0.0
 11
4.411528942306141
 21
9.005294343450115
 31
0.0
  0
LINE
  5
140
330
1F
100
AcDbEntity
  8
0
  6
Continuous
 62
     7
370
     5
100
AcDbLine
 10
4.411528942306141
 20
9.005294343450115
 30
0.0
 11
4.475699638362551
 21
9.0679269100448
 31
0.0
  0
LINE
  5
141
330
1F
100
AcDbEntity
  8
0
  6
Continuous
 62
     7
370
     5
100
AcDbLine
 10
4.475699638362551
 20
9.0679269100448
 30
0.0
 11
4.475699638362551
 21
9.076498506889798
 31
0.0
  0
LINE
  5
142
330
1F
100
AcDbEntity
  8
0
  6
Continuous
 62
     7
370
     5
100
AcDbLine
 10
4.09265716465
 20
8.702637309836479
 30
0.0
 11
4.028486468593585
 21
8.640004743241794
 31
0.0
  0
LINE
  5
143
330
1F
100
AcDbEntity
  8
0
  6
Continuous
 62
     7
370
     5
100
AcDbLine
 10
4.028486468593585
 20
8.640004743241794
 30
0.0
 11
4.028486468593585
 21
8.631433146396794
 31
0.0
  0
LINE
  5
144
330
1F
100
AcDbEntity
  8
0
  6
Continuous
 62
     7
370
     5
100
AcDbLine
 10
4.028486468593585
 20
8.631433146396794
 30
0.0
 11
4.09265716465
 21
8.694065712991481
 31
0.0
  0
LINE
  5
145
330
1F
100
AcDbEntity
  8
0
  6
Continuous
 62
     7
370
     5
100
AcDbLine
 10
4.09265716465
 20
8.694065712991481
 30
0.0
 11
4.09265716465
 21
8.702637309836479
 31
0.0
  0
ARC
  5
146
330
1F
100
AcDbEntity
  8
0
  6
Continuous
 62
     7
370
     5
100
AcDbCircle
 10
4.541610392521612
 20
7.7491944414296
 30
0.0
 40
0.108028709733557
100
AcDbArc
 50
112.3765414415556
 51
136.0557652372465
  0
LINE
  5
147
330
1F
100
AcDbEntity
  8
0
  6
Continuous
 62
     7
370
     5
100
AcDbLine
 10
4.317985760955547
 20
7.681815284098089
 30
0.0
 11
4.463828040426716
 21
7.824161819863707
 31
0.0
  0
LINE
  5
148
330
1F
100
AcDbEntity
  8
0
  6
Continuous
 62
     7
370
     5
100
AcDbLine
 10
3.787528075803622
 20
9.253417595597671
 30
0.0
 11
4.317985760955547
 21
7.681815284098089
 31
0.0
  0
LINE
  5
149
330
1F
100
AcDbEntity
  8
0
  6
Continuous
 62
     7
370
     5
100
AcDbLine
 10
3.787528075803622
 20
10.4320225962476
 30
0.0
 11
3.787528075803622
 21
9.253417595597671
 31
0.0
  0
LINE
  5
14A
330
1F
100
AcDbEntity
  8
0
  6
Continuous
 62
     7
370
     5
100
AcDbLine
 10
3.845865097108675
 20
10.59610740945564
 30
0.0
 11
3.787528075803622
 21
10.4320225962476
 31
0.0
  0
LINE
  5
14B
330
1F
100
AcDbEntity
  8
0
  6
Continuous
 62
     7
370
     5
100
AcDbLine
 10
4.429234214993338
 20
11.16549355251811
 30
0.0
 11
3.845865097108675
 21
10.59610740945564
 31
0.0
  0
LINE
  5
14C
330
1F
100
AcDbEntity
  8
0
  6
Continuous
 62
     7
370
     5
100
AcDbLine
 10
4.48757123629839
 20
11.11528618170567
 30
0.0
 11
4.429234214993338
 21
11.16549355251811
 31
0.0
  0
LINE
  5
14D
330
1F
100
AcDbEntity
  8
0
  6
Continuous
 62
     7
370
     5
100
AcDbLine
 10
4.48757123629839
 20
9.293805634725641
 30
0.0
 11
4.48757123629839
 21
11.11528618170567
 31
0.0
  0
ARC
  5
14E
330
1F
100
AcDbEntity
  8
0
  6
Continuous
 62
     7
370
     5
100
AcDbCircle
 10
4.731290873992679
 20
9.286993048794919
 30
0.0
 40
0.2438148336851126
100
AcDbArc
 50
178.3988536530209
 51
198.8007332552506
  0
LINE
  5
14F
330
1F
100
AcDbEntity
  8
0
  6
Continuous
 62
     7
370
     5
100
AcDbLine
 10
4.50048474765547
 20
9.208416938111637
 30
0.0
 11
4.50048474765547
 21
7.84908880293735
 31
0.0
  0
LINE
  5
150
330
1F
100
AcDbEntity
  8
0
  6
Continuous
 62
     7
370
     5
100
AcDbLine
 10
3.787528075803622
 20
10.4320225962476
 30
0.0
 11
3.741539053421376
 21
10.44452142710555
 31
0.0
  0
LINE
  5
151
330
1F
100
AcDbEntity
  8
0
  6
Continuous
 62
     7
370
     5
100
AcDbLine
 10
3.741539053421376
 20
10.44452142710555
 30
0.0
 11
3.799876074726428
 21
10.60860624031358
 31
0.0
  0
LINE
  5
152
330
1F
100
AcDbEntity
  8
0
  6
Continuous
 62
     7
370
     5
100
AcDbLine
 10
3.799876074726428
 20
10.60860624031358
 30
0.0
 11
3.845865097108675
 21
10.59610740945564
 31
0.0
  0
LINE
  5
153
330
1F
100
AcDbEntity
  8
0
  6
Continuous
 62
     7
370
     5
100
AcDbLine
 10
3.787528075803622
 20
9.253417595597671
 30
0.0
 11
3.741539053421376
 21
9.265916426455616
 31
0.0
  0
LINE
  5
154
330
1F
100
AcDbEntity
  8
0
  6
Continuous
 62
     7
370
     5
100
AcDbLine
 10
3.741539053421376
 20
10.44452142710555
 30
0.0
 11
3.741539053421376
 21
9.265916426455616
 31
0.0
  0
LINE
  5
155
330
1F
100
AcDbEntity
  8
0
  6
Continuous
 62
     7
370
     5
100
AcDbLine
 10
4.429234214993338
 20
11.16549355251811
 30
0.0
 11
4.383245192611092
 21
11.17799238337606
 31
0.0
  0
LINE
  5
156
330
1F
100
AcDbEntity
  8
0
  6
Continuous
 62
     7
370
     5
100
AcDbLine
 10
4.383245192611092
 20
11.17799238337606
 30
0.0
 11
3.799876074726428
 21
10.60860624031358
 31
0.0
  0
ARC
  5
157
330
1F
100
AcDbEntity
  8
0
  6
Continuous
 62
     7
370
     5
100
AcDbCircle
 10
3.72461718336899
 20
10.54113415201348
 30
0.0
 40
0.1717776273239416
100
AcDbArc
 50
325.6442957174835
 51
3.946805633116511
  0
LINE
  5
158
330
1F
100
AcDbEntity
  8
0
  6
Continuous
 62
     7
370
     5
100
AcDbLine
 10
4.317985760955547
 20
7.681815284098089
 30
0.0
 11
4.2719967385733
 21
7.694314114956034
 31
0.0
  0
LINE
  5
159
330
1F
100
AcDbEntity
  8
0
  6
Continuous
 62
     7
370
     5
100
AcDbLine
 10
3.741539053421376
 20
9.265916426455616
 30
0.0
 11
4.2719967385733
 21
7.694314114956034
 31
0.0
  0
ARC
  5
15A
330
1F
100
AcDbEntity
  8
0
  6
Continuous
 62
     7
370
     5
100
AcDbCircle
 10
3.957963192640501
 20
10.39387872369726
 30
0.0
 40
0.1717793719835999
100
AcDbArc
 50
325.6444286774323
 51
3.946506945273502
  0
LINE
  5
15B
330
1F
100
AcDbEntity
  8
0
  6
Continuous
 62
     7
370
     5
100
AcDbLine
 10
4.078328646747298
 20
9.965831161966132
 30
0.0
 11
4.078328646747298
 21
9.902737360156471
 31
0.0
  0
SPLINE
  5
15C
330
1F
100
AcDbEntity
  8
0
  6
Continuous
 62
     7
370
     5
100
AcDbSpline
210
0.0
220
0.0
230
1.0
 70
     8
 71
     3
 72
     9
 73
     5
 74
     0
 42
0.0000000001
 43
0.0000000001
 40
0.0
 40
0.0
 40
0.0
 40
0.0
 40
0.5601342049213587
 40
1.0
 40
1.0
 40
1.0
 40
1.0
 10
4.078328646747298
 20
9.902737360156471
 30
0.0
 10
4.078323571106603
 20
9.900068502751258
 30
0.0
 10
4.078314509634099
 20
9.895303827818425
 30
0.0
 10
4.078486621597367
 20
9.890726940226347
 30
0.0
 10
4.078562327762938
 20
9.88871372392667
 30
0.0
  0
SPLINE
  5
15D
330
1F
100
AcDbEntity
  8
0
  6
Continuous
 62
     7
370
     5
100
AcDbSpline
210
0.0
220
0.0
230
1.0
 70
     8
 71
     3
 72
    10
 73
     6
 74
     0
 42
0.0000000001
 43
0.0000000001
 40
0.0
 40
0.0
 40
0.0
 40
0.0
 40
0.4741846176435353
 40
0.9463558050250815
 40
1.0
 40
1.0
 40
1.0
 40
1.0
 10
4.078562327762938
 20
9.88871372392667
 30
0.0
 10
4.078952193229476
 20
9.885906259769599
 30
0.0
 10
4.079730268758928
 20
9.880303252199155
 30
0.0
 10
4.082487970646041
 20
9.877061006885291
 30
0.0
 10
4.084407561073239
 20
9.878003503527418
 30
0.0
 10
4.084603399549271
 20
9.878099657948393
 30
0.0
  0
LINE
  5
15E
330
1F
100
AcDbEntity
  8
0
  6
Continuous
 62
     7
370
     5
100
AcDbLine
 10
4.110488739845531
 20
9.997220398743243
 30
0.0
 11
4.110488739845531
 21
9.933611411050634
 31
0.0
  0
SPLINE
  5
15F
330
1F
100
AcDbEntity
  8
0
  6
Continuous
 62
     7
370
     5
100
AcDbSpline
210
0.0
220
0.0
230
1.0
 70
     8
 71
     3
 72
    11
 73
     7
 74
     0
 42
0.0000000001
 43
0.0000000001
 40
0.0
 40
0.0
 40
0.0
 40
0.0
 40
0.2816909875826477
 40
0.5601584455626013
 40
0.7800933269379663
 40
1.0
 40
1.0
 40
1.0
 40
1.0
 10
4.110488739845536
 20
9.933611411050634
 30
0.0
 10
4.110440114334053
 20
9.927594401108144
 30
0.0
 10
4.110343419756909
 20
9.915629236850515
 30
0.0
 10
4.10681525298941
 20
9.896370400436062
 30
0.0
 10
4.100025925879799
 20
9.879753303335091
 30
0.0
 10
4.094917604720316
 20
9.8737443099153
 30
0.0
 10
4.092363607946286
 20
9.870740005892484
 30
0.0
  0
SPLINE
  5
160
330
1F
100
AcDbEntity
  8
0
  6
Continuous
 62
     7
370
     5
100
AcDbSpline
210
0.0
220
0.0
230
1.0
 70
     8
 71
     3
 72
    10
 73
     6
 74
     0
 42
0.0000000001
 43
0.0000000001
 40
0.0
 40
0.0
 40
0.0
 40
0.0
 40
0.42947939465469
 40
0.8581413972005062
 40
1.0
 40
1.0
 40
1.0
 40
1.0
 10
4.092363607946282
 20
9.870740005892486
 30
0.0
 10
4.090168011419284
 20
9.868904439526517
 30
0.0
 10
4.085780997060004
 20
9.865236800274082
 30
0.0
 10
4.080883003227804
 20
9.864557461540275
 30
0.0
 10
4.078924574447297
 20
9.866651909649069
 30
0.0
 10
4.078437615750493
 20
9.867172689231026
 30
0.0
  0
ARC
  5
161
330
1F
100
AcDbEntity
  8
0
  6
Continuous
 62
     7
370
     5
100
AcDbCircle
 10
3.782951806266849
 20
9.419468556468304
 30
0.0
 40
0.1717799556668342
100
AcDbArc
 50
325.6444962866297
 51
3.946439336080698
  0
LINE
  5
162
330
1F
100
AcDbEntity
  8
0
  6
Continuous
 62
     7
370
     5
100
AcDbLine
 10
4.078328646747298
 20
9.902737360156471
 30
0.0
 11
4.079212771641687
 21
9.90249707395468
 31
0.0
  0
ARC
  5
163
330
1F
100
AcDbEntity
  8
0
  6
Continuous
 62
     7
370
     5
100
AcDbCircle
 10
4.162142066091006
 20
10.80745563446516
 30
0.0
 40
0.1717796717161915
100
AcDbArc
 50
325.6444540836794
 51
3.946548583226279
  0
LINE
  5
164
330
1F
100
AcDbEntity
  8
0
  6
Continuous
 62
     7
370
     5
100
AcDbLine
 10
4.078562327762938
 20
9.88871372392667
 30
0.0
 11
4.079446452657327
 21
9.888473437724879
 31
0.0
  0
LINE
  5
165
330
1F
100
AcDbEntity
  8
0
  6
Continuous
 62
     7
370
     5
100
AcDbLine
 10
4.092363607946282
 20
9.870740005892486
 30
0.0
 11
4.093247732840672
 21
9.870499719690695
 31
0.0
  0
LINE
  5
166
330
1F
100
AcDbEntity
  8
0
  6
Continuous
 62
     7
370
     5
100
AcDbLine
 10
4.110488739845531
 20
9.933611411050634
 30
0.0
 11
4.111372864739921
 21
9.933371124848845
 31
0.0
  0
SPLINE
  5
167
330
1F
100
AcDbEntity
  8
0
  6
Continuous
 62
     7
370
     5
100
AcDbSpline
210
0.0
220
0.0
230
1.0
 70
     8
 71
     3
 72
    11
 73
     7
 74
     0
 42
0.0000000001
 43
0.0000000001
 40
0.0
 40
0.0
 40
0.0
 40
0.0
 40
0.0880693785397888
 40
0.4422311476497578
 40
0.7209346446087572
 40
1.0
 40
1.0
 40
1.0
 40
1.0
 10
4.07875713039051
 20
9.780127223305164
 30
0.0
 10
4.07920128410246
 20
9.780247893652346
 30
0.0
 10
4.081431555384285
 20
9.780853827144847
 30
0.0
 10
4.084108523227551
 20
9.777749951198163
 30
0.0
 10
4.086276023902103
 20
9.771679981552214
 30
0.0
 10
4.086462414054943
 20
9.76630339193664
 30
0.0
 10
4.086555669592661
 20
9.763613353069207
 30
0.0
  0
SPLINE
  5
168
330
1F
100
AcDbEntity
  8
0
  6
Continuous
 62
     7
370
     5
100
AcDbSpline
210
0.0
220
0.0
230
1.0
 70
     8
 71
     3
 72
    11
 73
     7
 74
     0
 42
0.0000000001
 43
0.0000000001
 40
0.0
 40
0.0
 40
0.0
 40
0.0
 40
0.187120991047268
 40
0.3739806353395412
 40
0.5609106814422466
 40
0.9999999999999998
 40
0.9999999999999998
 40
0.9999999999999998
 40
0.9999999999999998
 10
4.086555669592661
 20
9.763613353069207
 30
0.0
 10
4.08640270570252
 20
9.760075406784689
 30
0.0
 10
4.086096991562682
 20
9.753004455568184
 30
0.0
 10
4.083212599936492
 20
9.741188389892471
 30
0.0
 10
4.076637931474977
 20
9.725768016188427
 30
0.0
 10
4.070309809802395
 20
9.719077339311505
 30
0.0
 10
4.065871271971432
 20
9.714384505644657
 30
0.0
  0
LINE
  5
169
330
1F
100
AcDbEntity
  8
0
  6
Continuous
 62
     7
370
     5
100
AcDbLine
 10
4.065871271971428
 20
9.714384505644657
 30
0.0
 11
4.087303530980156
 21
9.685850985666197
 31
0.0
  0
LINE
  5
16A
330
1F
100
AcDbEntity
  8
0
  6
Continuous
 62
     7
370
     5
100
AcDbLine
 10
4.087303530980156
 20
9.685850985666197
 30
0.0
 11
4.081235490734494
 21
9.679928392362056
 31
0.0
  0
LINE
  5
16B
330
1F
100
AcDbEntity
  8
0
  6
Continuous
 62
     7
370
     5
100
AcDbLine
 10
4.059397198982709
 20
9.708065611935786
 30
0.0
 11
4.055143437881921
 21
9.703913810696342
 31
0.0
  0
LINE
  5
16C
330
1F
100
AcDbEntity
  8
0
  6
Continuous
 62
     7
370
     5
100
AcDbLine
 10
4.055143437881921
 20
9.703913810696342
 30
0.0
 11
4.055143437881921
 21
9.65446174888909
 31
0.0
  0
LINE
  5
16D
330
1F
100
AcDbEntity
  8
0
  6
Continuous
 62
     7
370
     5
100
AcDbLine
 10
4.055143437881921
 20
9.65446174888909
 30
0.0
 11
4.050792480810948
 21
9.650215081403066
 31
0.0
  0
LINE
  5
16E
330
1F
100
AcDbEntity
  8
0
  6
Continuous
 62
     7
370
     5
100
AcDbLine
 10
4.066081543816788
 20
9.761294392609636
 30
0.0
 11
4.055143437881921
 21
9.750618465894071
 31
0.0
  0
LINE
  5
16F
330
1F
100
AcDbEntity
  8
0
  6
Continuous
 62
     7
370
     5
100
AcDbLine
 10
4.055143437881921
 20
9.750618465894071
 30
0.0
 11
4.055143437881921
 21
9.714903185701603
 31
0.0
  0
SPLINE
  5
170
330
1F
100
AcDbEntity
  8
0
  6
Continuous
 62
     7
370
     5
100
AcDbSpline
210
0.0
220
0.0
230
1.0
 70
     8
 71
     3
 72
    10
 73
     6
 74
     0
 42
0.0000000001
 43
0.0000000001
 40
0.0
 40
0.0
 40
0.0
 40
0.0
 40
0.009719567379291
 40
0.2086381911107484
 40
1.0
 40
1.0
 40
1.0
 40
1.0
 10
4.078321254377733
 20
9.76787062281088
 30
0.0
 10
4.078294451657244
 20
9.767902755587964
 30
0.0
 10
4.077719110091031
 20
9.768592511029176
 30
0.0
 10
4.073863396677606
 20
9.768866349780228
 30
0.0
 10
4.069538052094917
 20
9.764657670367505
 30
0.0
 10
4.066081543816788
 20
9.761294392609636
 30
0.0
  0
SPLINE
  5
171
330
1F
100
AcDbEntity
  8
0
  6
Continuous
 62
     7
370
     5
100
AcDbSpline
210
0.0
220
0.0
230
1.0
 70
     8
 71
     3
 72
     9
 73
     5
 74
     0
 42
0.0000000001
 43
0.0000000001
 40
0.0
 40
0.0
 40
0.0
 40
0.0
 40
0.8223191266214078
 40
1.0
 40
1.0
 40
1.0
 40
1.0
 10
4.12514301733905
 20
9.931580855176985
 30
0.0
 10
4.126814591489359
 20
9.928086634436143
 30
0.0
 10
4.128847347503643
 20
9.923837407307985
 30
0.0
 10
4.132249105290505
 20
9.923922493237505
 30
0.0
 10
4.132853532585107
 20
9.92393761137977
 30
0.0
  0
SPLINE
  5
172
330
1F
100
AcDbEntity
  8
0
  6
Continuous
 62
     7
370
     5
100
AcDbSpline
210
0.0
220
0.0
230
1.0
 70
     8
 71
     3
 72
     9
 73
     5
 74
     0
 42
0.0000000001
 43
0.0000000001
 40
0.0
 40
0.0
 40
0.0
 40
0.0
 40
0.2583779631519535
 40
1.0
 40
1.0
 40
1.0
 40
1.0
 10
4.145701607781977
 20
10.03155328245389
 30
0.0
 10
4.146576718763982
 20
10.03156899890345
 30
0.0
 10
4.149963660015959
 20
10.03162982626412
 30
0.0
 10
4.152205121214935
 20
10.02798027003387
 30
0.0
 10
4.153867438234841
 20
10.0252736787088
 30
0.0
  0
LINE
  5
173
330
1F
100
AcDbEntity
  8
0
  6
Continuous
 62
     7
370
     5
100
AcDbLine
 10
4.153867438234841
 20
10.0252736787088
 30
0.0
 11
4.149134542069761
 21
10.01406492659968
 31
0.0
  0
SPLINE
  5
174
330
1F
100
AcDbEntity
  8
0
  6
Continuous
 62
     7
370
     5
100
AcDbSpline
210
0.0
220
0.0
230
1.0
 70
     8
 71
     3
 72
    10
 73
     6
 74
     0
 42
0.0000000001
 43
0.0000000001
 40
0.0
 40
0.0
 40
0.0
 40
0.0
 40
0.1421543100777518
 40
0.5709888624724064
 40
1.0
 40
1.0
 40
1.0
 40
1.0
 10
4.14435715479157
 20
10.01852353061803
 30
0.0
 10
4.144127554001278
 20
10.01877424318634
 30
0.0
 10
4.143205320310329
 20
10.01978127620634
 30
0.0
 10
4.140830411939191
 20
10.01916759759805
 30
0.0
 10
4.13877075213207
 20
10.01750979803221
 30
0.0
 10
4.137740710240888
 20
10.01668072762259
 30
0.0
  0
SPLINE
  5
175
330
1F
100
AcDbEntity
  8
0
  6
Continuous
 62
     7
370
     5
100
AcDbSpline
210
0.0
220
0.0
230
1.0
 70
     8
 71
     3
 72
    11
 73
     7
 74
     0
 42
0.0000000001
 43
0.0000000001
 40
0.0
 40
0.0
 40
0.0
 40
0.0
 40
0.2803070767250131
 40
0.5598317473321796
 40
0.7799007619911586
 40
1.0
 40
1.0
 40
1.0
 40
1.0
 10
4.137740710240892
 20
10.01668072762259
 30
0.0
 10
4.136556440926847
 20
10.01535605717146
 30
0.0
 10
4.134191207886216
 20
10.01271041375082
 30
0.0
 10
4.131334112578951
 20
10.00660041656222
 30
0.0
 10
4.129474433629813
 20
10.00018022097224
 30
0.0
 10
4.129282395404422
 20
9.996571241227897
 30
0.0
 10
4.129186369698746
 20
9.994766627453726
 30
0.0
  0
SPLINE
  5
176
330
1F
100
AcDbEntity
  8
0
  6
Continuous
 62
     7
370
     5
100
AcDbSpline
210
0.0
220
0.0
230
1.0
 70
     8
 71
     3
 72
    10
 73
     6
 74
     0
 42
0.0000000001
 43
0.0000000001
 40
0.0
 40
0.0
 40
0.0
 40
0.0
 40
0.2799306307133491
 40
0.5597727224195727
 40
0.9999999999999998
 40
0.9999999999999998
 40
0.9999999999999998
 40
0.9999999999999998
 10
4.129186369698746
 20
9.994766627453726
 30
0.0
 10
4.129254205999198
 20
9.993337341355569
 30
0.0
 10
4.129389857144226
 20
9.990479221226866
 30
0.0
 10
4.130655481312178
 20
9.98678646892818
 30
0.0
 10
4.132129844786859
 20
9.985476221891229
 30
0.0
 10
4.133031223246093
 20
9.984675178949203
 30
0.0
  0
SPLINE
  5
177
330
1F
100
AcDbEntity
  8
0
  6
Continuous
 62
     7
370
     5
100
AcDbSpline
210
0.0
220
0.0
230
1.0
 70
     8
 71
     3
 72
     9
 73
     5
 74
     0
 42
0.0000000001
 43
0.0000000001
 40
0.0
 40
0.0
 40
0.0
 40
0.0
 40
0.5599093707121776
 40
0.9999999999999998
 40
0.9999999999999998
 40
0.9999999999999998
 40
0.9999999999999998
 10
4.133031223246093
 20
9.984675178949203
 30
0.0
 10
4.134470269113431
 20
9.984028040993118
 30
0.0
 10
4.137040409822996
 20
9.982872250449259
 30
0.0
 10
4.139701397969091
 20
9.982031289486638
 30
0.0
 10
4.140872473916837
 20
9.981661190447393
 30
0.0
  0
SPLINE
  5
178
330
1F
100
AcDbEntity
  8
0
  6
Continuous
 62
     7
370
     5
100
AcDbSpline
210
0.0
220
0.0
230
1.0
 70
     8
 71
     3
 72
    10
 73
     6
 74
     0
 42
0.0000000001
 43
0.0000000001
 40
0.0
 40
0.0
 40
0.0
 40
0.0
 40
0.5601391432105661
 40
0.7802701767277155
 40
1.0
 40
1.0
 40
1.0
 40
1.0
 10
4.140872473916837
 20
9.981661190447393
 30
0.0
 10
4.144528947778541
 20
9.980255439044325
 30
0.0
 10
4.149622392042989
 20
9.978297236499471
 30
0.0
 10
4.153961569620698
 20
9.969637628785879
 30
0.0
 10
4.154397522170244
 20
9.9635418972981
 30
0.0
 10
4.154615299622339
 20
9.960496811603723
 30
0.0
  0
SPLINE
  5
179
330
1F
100
AcDbEntity
  8
0
  6
Continuous
 62
     7
370
     5
100
AcDbSpline
210
0.0
220
0.0
230
1.0
 70
     8
 71
     3
 72
    11
 73
     7
 74
     0
 42
0.0000000001
 43
0.0000000001
 40
0.0
 40
0.0
 40
0.0
 40
0.0
 40
0.2791585807337522
 40
0.5590817747281848
 40
0.7794412735066368
 40
1.0
 40
1.0
 40
1.0
 40
1.0
 10
4.154615299622334
 20
9.960496811603723
 30
0.0
 10
4.154288558101552
 20
9.955795990941345
 30
0.0
 10
4.153634180117395
 20
9.946381474104018
 30
0.0
 10
4.148963550047715
 20
9.932507223649613
 30
0.0
 10
4.143585805687864
 20
9.921565334023405
 30
0.0
 10
4.13982982233045
 20
9.917345533975339
 30
0.0
 10
4.137950982086252
 20
9.915234680598649
 30
0.0
  0
SPLINE
  5
17A
330
1F
100
AcDbEntity
  8
0
  6
Continuous
 62
     7
370
     5
100
AcDbSpline
210
0.0
220
0.0
230
1.0
 70
     8
 71
     3
 72
    10
 73
     6
 74
     0
 42
0.0000000001
 43
0.0000000001
 40
0.0
 40
0.0
 40
0.0
 40
0.0
 40
0.4738781929489539
 40
0.9475983016456808
 40
1.0
 40
1.0
 40
1.0
 40
1.0
 10
4.137950982086247
 20
9.915234680598649
 30
0.0
 10
4.135828514835409
 20
9.913615618404419
 30
0.0
 10
4.131584288382034
 20
9.910378034129937
 30
0.0
 10
4.127277957770216
 20
9.910360150485338
 30
0.0
 10
4.125902355261629
 20
9.9125913763158
 30
0.0
 10
4.1257653453397
 20
9.912813606265901
 30
0.0
  0
LINE
  5
17B
330
1F
100
AcDbEntity
  8
0
  6
Continuous
 62
     7
370
     5
100
AcDbLine
 10
4.055143437881921
 20
9.750618465894071
 30
0.0
 11
4.056027562776312
 21
9.75037817969228
 31
0.0
  0
LINE
  5
17C
330
1F
100
AcDbEntity
  8
0
  6
Continuous
 62
     7
370
     5
100
AcDbLine
 10
4.066081543816788
 20
9.761294392609636
 30
0.0
 11
4.066965668711177
 21
9.761054106407845
 31
0.0
  0
LINE
  5
17D
330
1F
100
AcDbEntity
  8
0
  6
Continuous
 62
     7
370
     5
100
AcDbLine
 10
4.066965668711177
 20
9.761054106407845
 30
0.0
 11
4.056027562776312
 21
9.75037817969228
 31
0.0
  0
SPLINE
  5
17E
330
1F
100
AcDbEntity
  8
0
  6
Continuous
 62
     7
370
     5
100
AcDbSpline
210
0.0
220
0.0
230
1.0
 70
     8
 71
     3
 72
    12
 73
     8
 74
     0
 42
0.0000000001
 43
0.0000000001
 40
0.0
 40
0.0
 40
0.0
 40
0.0
 40
0.1253158127461636
 40
0.2506667405761564
 40
0.3760038363657268
 40
0.5013465716102799
 40
1.0
 40
1.0
 40
1.0
 40
1.0
 10
4.082204354087394
 20
9.758284488328648
 30
0.0
 10
4.082140644362585
 20
9.759791227955686
 30
0.0
 10
4.082013207060706
 20
9.762805129417351
 30
0.0
 10
4.080862541995292
 20
9.765971850779912
 30
0.0
 10
4.079210006563866
 20
9.767970862764553
 30
0.0
 10
4.074893884626362
 20
9.769019201631252
 30
0.0
 10
4.07048718787015
 20
9.764592006451474
 30
0.0
 10
4.066965668711177
 20
9.761054106407845
 30
0.0
  0
SPLINE
  5
17F
330
1F
100
AcDbEntity
  8
0
  6
Continuous
 62
     7
370
     5
100
AcDbSpline
210
0.0
220
0.0
230
1.0
 70
     8
 71
     3
 72
    12
 73
     8
 74
     0
 42
0.0000000001
 43
0.0000000001
 40
0.0
 40
0.0
 40
0.0
 40
0.0
 40
0.4986607768922484
 40
0.6240474959661536
 40
0.7493993207591801
 40
0.8746805298731931
 40
1.0
 40
1.0
 40
1.0
 40
1.0
 10
4.066708578525252
 20
9.724937541475945
 30
0.0
 10
4.070288082105588
 20
9.728441209125231
 30
0.0
 10
4.074767640854989
 20
9.7328258632319
 30
0.0
 10
4.07921680217202
 20
9.742417622490902
 30
0.0
 10
4.080890187211693
 20
9.747780213073479
 30
0.0
 10
4.082007896771289
 20
9.753292509314386
 30
0.0
 10
4.082138861650239
 20
9.756620325963307
 30
0.0
 10
4.082204354087394
 20
9.758284488328648
 30
0.0
  0
LINE
  5
180
330
1F
100
AcDbEntity
  8
0
  6
Continuous
 62
     7
370
     5
100
AcDbLine
 10
4.056027562776312
 20
9.714662899499812
 30
0.0
 11
4.066708578525248
 21
9.724937541475945
 31
0.0
  0
LINE
  5
181
330
1F
100
AcDbEntity
  8
0
  6
Continuous
 62
     7
370
     5
100
AcDbLine
 10
4.056027562776312
 20
9.75037817969228
 30
0.0
 11
4.056027562776312
 21
9.714662899499812
 31
0.0
  0
LINE
  5
182
330
1F
100
AcDbEntity
  8
0
  6
Continuous
 62
     7
370
     5
100
AcDbLine
 10
4.055143437881921
 20
9.714903185701603
 30
0.0
 11
4.056027562776312
 21
9.714662899499812
 31
0.0
  0
LINE
  5
183
330
1F
100
AcDbEntity
  8
0
  6
Continuous
 62
     7
370
     5
100
AcDbLine
 10
4.129186369698746
 20
9.994766627453726
 30
0.0
 11
4.130070494593135
 21
9.994526341251933
 31
0.0
  0
LINE
  5
184
330
1F
100
AcDbEntity
  8
0
  6
Continuous
 62
     7
370
     5
100
AcDbLine
 10
4.137740710240888
 20
10.01668072762259
 30
0.0
 11
4.138624835135277
 21
10.0164404414208
 31
0.0
  0
LINE
  5
185
330
1F
100
AcDbEntity
  8
0
  6
Continuous
 62
     7
370
     5
100
AcDbLine
 10
4.133031223246093
 20
9.984675178949203
 30
0.0
 11
4.133915348140483
 21
9.984434892747412
 31
0.0
  0
LINE
  5
186
330
1F
100
AcDbEntity
  8
0
  6
Continuous
 62
     7
370
     5
100
AcDbLine
 10
4.153867438234841
 20
10.0252736787088
 30
0.0
 11
4.15475156312923
 21
10.02503339250701
 31
0.0
  0
LINE
  5
187
330
1F
100
AcDbEntity
  8
0
  6
Continuous
 62
     7
370
     5
100
AcDbLine
 10
4.086555669592661
 20
9.763613353069207
 30
0.0
 11
4.087439794487051
 21
9.763373066867416
 31
0.0
  0
LINE
  5
188
330
1F
100
AcDbEntity
  8
0
  6
Continuous
 62
     7
370
     5
100
AcDbLine
 10
4.065871271971428
 20
9.714384505644657
 30
0.0
 11
4.066755396865818
 21
9.714144219442866
 31
0.0
  0
LINE
  5
189
330
1F
100
AcDbEntity
  8
0
  6
Continuous
 62
     7
370
     5
100
AcDbLine
 10
4.055143437881921
 20
9.703913810696342
 30
0.0
 11
4.056027562776312
 21
9.703673524494551
 31
0.0
  0
LINE
  5
18A
330
1F
100
AcDbEntity
  8
0
  6
Continuous
 62
     7
370
     5
100
AcDbLine
 10
4.059397198982709
 20
9.708065611935786
 30
0.0
 11
4.060281323877098
 21
9.707825325733995
 31
0.0
  0
LINE
  5
18B
330
1F
100
AcDbEntity
  8
0
  6
Continuous
 62
     7
370
     5
100
AcDbLine
 10
4.055143437881921
 20
9.65446174888909
 30
0.0
 11
4.056027562776312
 21
9.654221462687299
 31
0.0
  0
LINE
  5
18C
330
1F
100
AcDbEntity
  8
0
  6
Continuous
 62
     7
370
     5
100
AcDbLine
 10
4.140872473916837
 20
9.981661190447393
 30
0.0
 11
4.141756598811226
 21
9.981420904245601
 31
0.0
  0
LINE
  5
18D
330
1F
100
AcDbEntity
  8
0
  6
Continuous
 62
     7
370
     5
100
AcDbLine
 10
4.137950982086247
 20
9.915234680598649
 30
0.0
 11
4.138835106980637
 21
9.914994394396858
 31
0.0
  0
LINE
  5
18E
330
1F
100
AcDbEntity
  8
0
  6
Continuous
 62
     7
370
     5
100
AcDbLine
 10
4.087303530980156
 20
9.685850985666197
 30
0.0
 11
4.088187655874545
 21
9.685610699464406
 31
0.0
  0
LINE
  5
18F
330
1F
100
AcDbEntity
  8
0
  6
Continuous
 62
     7
370
     5
100
AcDbLine
 10
4.154615299622334
 20
9.960496811603723
 30
0.0
 11
4.155499424516724
 21
9.960256525401932
 31
0.0
  0
LINE
  5
190
330
1F
100
AcDbEntity
  8
0
  6
Continuous
 62
     7
370
     5
100
AcDbLine
 10
4.123203204807326
 20
9.826932721165691
 30
0.0
 11
4.123203204807326
 21
9.817046884881873
 31
0.0
  0
LINE
  5
191
330
1F
100
AcDbEntity
  8
0
  6
Continuous
 62
     7
370
     5
100
AcDbLine
 10
4.123203204807326
 20
9.817046884881873
 30
0.0
 11
4.110488739845531
 21
9.80463717729922
 31
0.0
  0
LINE
  5
192
330
1F
100
AcDbEntity
  8
0
  6
Continuous
 62
     7
370
     5
100
AcDbLine
 10
4.110488739845531
 20
9.80463717729922
 30
0.0
 11
4.110488739845531
 21
9.708480460294239
 31
0.0
  0
LINE
  5
193
330
1F
100
AcDbEntity
  8
0
  6
Continuous
 62
     7
370
     5
100
AcDbLine
 10
4.110488739845531
 20
9.708480460294239
 30
0.0
 11
4.106137782774561
 21
9.704233792808215
 31
0.0
  0
LINE
  5
194
330
1F
100
AcDbEntity
  8
0
  6
Continuous
 62
     7
370
     5
100
AcDbLine
 10
4.105253299445875
 20
9.79952722696931
 30
0.0
 11
4.093423317812763
 21
9.78798080223054
 31
0.0
  0
LINE
  5
195
330
1F
100
AcDbEntity
  8
0
  6
Continuous
 62
     7
370
     5
100
AcDbLine
 10
4.105253299445875
 20
9.79952722696931
 30
0.0
 11
4.106137424340265
 21
9.799286940767519
 31
0.0
  0
SPLINE
  5
196
330
1F
100
AcDbEntity
  8
0
  6
Continuous
 62
     7
370
     5
100
AcDbSpline
210
0.0
220
0.0
230
1.0
 70
     8
 71
     3
 72
    11
 73
     7
 74
     0
 42
0.0000000001
 43
0.0000000001
 40
0.0
 40
0.0
 40
0.0
 40
0.0
 40
0.111782484278289
 40
0.4565875452911889
 40
0.7280797318867718
 40
1.0
 40
1.0
 40
1.0
 40
1.0
 10
4.194749158460527
 20
10.07608918465747
 30
0.0
 10
4.195311346069643
 20
10.07621909640313
 30
0.0
 10
4.197607661651601
 20
10.07674973486083
 30
0.0
 10
4.200271275353444
 20
10.07349760816202
 30
0.0
 10
4.202227764198411
 20
10.06726792933859
 30
0.0
 10
4.202396928328128
 20
10.06200551773327
 30
0.0
 10
4.20248157702381
 20
10.05937223915778
 30
0.0
  0
SPLINE
  5
197
330
1F
100
AcDbEntity
  8
0
  6
Continuous
 62
     7
370
     5
100
AcDbSpline
210
0.0
220
0.0
230
1.0
 70
     8
 71
     3
 72
    11
 73
     7
 74
     0
 42
0.0000000001
 43
0.0000000001
 40
0.0
 40
0.0
 40
0.0
 40
0.0
 40
0.2800987356964424
 40
0.5593230041284084
 40
0.7794565723045203
 40
1.0
 40
1.0
 40
1.0
 40
1.0
 10
4.20248157702381
 20
10.05937223915778
 30
0.0
 10
4.202342930608027
 20
10.05570318045577
 30
0.0
 10
4.202066070630074
 20
10.04837651784008
 30
0.0
 10
4.199142017028401
 20
10.03692565424457
 30
0.0
 10
4.195168370475751
 20
10.02749886756363
 30
0.0
 10
4.192285120198441
 20
10.0230460592328
 30
0.0
 10
4.190842154250553
 20
10.02081758436038
 30
0.0
  0
SPLINE
  5
198
330
1F
100
AcDbEntity
  8
0
  6
Continuous
 62
     7
370
     5
100
AcDbSpline
210
0.0
220
0.0
230
1.0
 70
     8
 71
     3
 72
     9
 73
     5
 74
     0
 42
0.0000000001
 43
0.0000000001
 40
0.0
 40
0.0
 40
0.0
 40
0.0
 40
0.5596837088883109
 40
0.9999999999999998
 40
0.9999999999999998
 40
0.9999999999999998
 40
0.9999999999999998
 10
4.190842154250553
 20
10.02081758436038
 30
0.0
 10
4.188081144632133
 20
10.01748663429432
 30
0.0
 10
4.183147984037019
 20
10.01153514774367
 30
0.0
 10
4.178177726439965
 20
10.00669281421808
 30
0.0
 10
4.175989241048956
 20
10.00456065587976
 30
0.0
  0
LINE
  5
199
330
1F
100
AcDbEntity
  8
0
  6
Continuous
 62
     7
370
     5
100
AcDbLine
 10
4.175989241048956
 20
10.00456065587976
 30
0.0
 11
4.17181720670056
 21
10.0004886224561
 31
0.0
  0
LINE
  5
19A
330
1F
100
AcDbEntity
  8
0
  6
Continuous
 62
     7
370
     5
100
AcDbLine
 10
4.17181720670056
 20
10.0004886224561
 30
0.0
 11
4.17181720670056
 21
9.951036560648855
 31
0.0
  0
LINE
  5
19B
330
1F
100
AcDbEntity
  8
0
  6
Continuous
 62
     7
370
     5
100
AcDbLine
 10
4.17181720670056
 20
9.951036560648855
 30
0.0
 11
4.167466386525322
 21
9.946790026777263
 31
0.0
  0
LINE
  5
19C
330
1F
100
AcDbEntity
  8
0
  6
Continuous
 62
     7
370
     5
100
AcDbLine
 10
4.182486723207956
 20
10.05760680142136
 30
0.0
 11
4.17181720670056
 21
10.04719302622099
 31
0.0
  0
LINE
  5
19D
330
1F
100
AcDbEntity
  8
0
  6
Continuous
 62
     7
370
     5
100
AcDbLine
 10
4.17181720670056
 20
10.04719302622099
 30
0.0
 11
4.17181720670056
 21
10.01147774602853
 31
0.0
  0
SPLINE
  5
19E
330
1F
100
AcDbEntity
  8
0
  6
Continuous
 62
     7
370
     5
100
AcDbSpline
210
0.0
220
0.0
230
1.0
 70
     8
 71
     3
 72
     9
 73
     5
 74
     0
 42
0.0000000001
 43
0.0000000001
 40
0.0
 40
0.0
 40
0.0
 40
0.0
 40
0.1905149890352705
 40
0.9999999999999998
 40
0.9999999999999998
 40
0.9999999999999998
 40
0.9999999999999998
 10
4.194227585719109
 20
10.06382864573819
 30
0.0
 10
4.193607829956746
 20
10.06412293208606
 30
0.0
 10
4.190354774827076
 20
10.06566762077095
 30
0.0
 10
4.186006547805884
 20
10.06121286193031
 30
0.0
 10
4.18248672320796
 20
10.05760680142136
 30
0.0
  0
SPLINE
  5
19F
330
1F
100
AcDbEntity
  8
0
  6
Continuous
 62
     7
370
     5
100
AcDbSpline
210
0.0
220
0.0
230
1.0
 70
     8
 71
     3
 72
    11
 73
     7
 74
     0
 42
0.0000000001
 43
0.0000000001
 40
0.0
 40
0.0
 40
0.0
 40
0.0
 40
0.2489963483940651
 40
0.3747717530414743
 40
0.5004526021831398
 40
1.0
 40
1.0
 40
1.0
 40
1.0
 10
4.198130261518543
 20
10.05397900761096
 30
0.0
 10
4.197865658293474
 20
10.05679574393587
 30
0.0
 10
4.197467396169725
 20
10.06103529691385
 30
0.0
 10
4.195317847526903
 20
10.06376702916147
 30
0.0
 10
4.19120014176021
 20
10.06517978629124
 30
0.0
 10
4.186848077798507
 20
10.06083662879326
 30
0.0
 10
4.183370848102345
 20
10.05736651521957
 30
0.0
  0
SPLINE
  5
1A0
330
1F
100
AcDbEntity
  8
0
  6
Continuous
 62
     7
370
     5
100
AcDbSpline
210
0.0
220
0.0
230
1.0
 70
     8
 71
     3
 72
    11
 73
     7
 74
     0
 42
0.0000000001
 43
0.0000000001
 40
0.0
 40
0.0
 40
0.0
 40
0.0
 40
0.4997006192773676
 40
0.6253022781841331
 40
0.751078340559725
 40
1.0
 40
1.0
 40
1.0
 40
1.0
 10
4.182914985312611
 20
10.02097020353528
 30
0.0
 10
4.186462565989863
 20
10.02443468382025
 30
0.0
 10
4.190901844617825
 20
10.02876997445496
 30
0.0
 10
4.195228230742228
 20
10.03829400714819
 30
0.0
 10
4.197470747664857
 20
10.04541120860327
 30
0.0
 10
4.197867012351153
 20
10.05055911590963
 30
0.0
 10
4.198130261518543
 20
10.05397900761096
 30
0.0
  0
LINE
  5
1A1
330
1F
100
AcDbEntity
  8
0
  6
Continuous
 62
     7
370
     5
100
AcDbLine
 10
4.17270133159495
 20
10.01123745982674
 30
0.0
 11
4.182914985312606
 21
10.02097020353528
 31
0.0
  0
LINE
  5
1A2
330
1F
100
AcDbEntity
  8
0
  6
Continuous
 62
     7
370
     5
100
AcDbLine
 10
4.17270133159495
 20
10.0469527400192
 30
0.0
 11
4.17270133159495
 21
10.01123745982674
 31
0.0
  0
LINE
  5
1A3
330
1F
100
AcDbEntity
  8
0
  6
Continuous
 62
     7
370
     5
100
AcDbLine
 10
4.183370848102345
 20
10.05736651521957
 30
0.0
 11
4.17270133159495
 21
10.0469527400192
 31
0.0
  0
LINE
  5
1A4
330
1F
100
AcDbEntity
  8
0
  6
Continuous
 62
     7
370
     5
100
AcDbLine
 10
4.17181720670056
 20
10.01147774602853
 30
0.0
 11
4.17270133159495
 21
10.01123745982674
 31
0.0
  0
LINE
  5
1A5
330
1F
100
AcDbEntity
  8
0
  6
Continuous
 62
     7
370
     5
100
AcDbLine
 10
4.17181720670056
 20
10.04719302622099
 30
0.0
 11
4.17270133159495
 21
10.0469527400192
 31
0.0
  0
LINE
  5
1A6
330
1F
100
AcDbEntity
  8
0
  6
Continuous
 62
     7
370
     5
100
AcDbLine
 10
4.182486723207956
 20
10.05760680142136
 30
0.0
 11
4.183370848102345
 21
10.05736651521957
 31
0.0
  0
LINE
  5
1A7
330
1F
100
AcDbEntity
  8
0
  6
Continuous
 62
     7
370
     5
100
AcDbLine
 10
4.110488739845531
 20
9.80463717729922
 30
0.0
 11
4.111372864739921
 21
9.804396891097429
 31
0.0
  0
LINE
  5
1A8
330
1F
100
AcDbEntity
  8
0
  6
Continuous
 62
     7
370
     5
100
AcDbLine
 10
4.123203204807326
 20
9.817046884881873
 30
0.0
 11
4.124087329701715
 21
9.816806598680082
 31
0.0
  0
LINE
  5
1A9
330
1F
100
AcDbEntity
  8
0
  6
Continuous
 62
     7
370
     5
100
AcDbLine
 10
4.110488739845531
 20
9.708480460294239
 30
0.0
 11
4.111372864739921
 21
9.708240174092448
 31
0.0
  0
LINE
  5
1AA
330
1F
100
AcDbEntity
  8
0
  6
Continuous
 62
     7
370
     5
100
AcDbLine
 10
4.20248157702381
 20
10.05937223915778
 30
0.0
 11
4.203365701918199
 21
10.05913195295599
 31
0.0
  0
LINE
  5
1AB
330
1F
100
AcDbEntity
  8
0
  6
Continuous
 62
     7
370
     5
100
AcDbLine
 10
4.17181720670056
 20
10.0004886224561
 30
0.0
 11
4.17270133159495
 21
10.00024833625431
 31
0.0
  0
LINE
  5
1AC
330
1F
100
AcDbEntity
  8
0
  6
Continuous
 62
     7
370
     5
100
AcDbLine
 10
4.175989241048956
 20
10.00456065587976
 30
0.0
 11
4.176873365943345
 21
10.00432036967797
 31
0.0
  0
LINE
  5
1AD
330
1F
100
AcDbEntity
  8
0
  6
Continuous
 62
     7
370
     5
100
AcDbLine
 10
4.17181720670056
 20
9.951036560648855
 30
0.0
 11
4.17270133159495
 21
9.950796274447064
 31
0.0
  0
LINE
  5
1AE
330
1F
100
AcDbEntity
  8
0
  6
Continuous
 62
     7
370
     5
100
AcDbLine
 10
4.190842154250553
 20
10.02081758436038
 30
0.0
 11
4.191726279144942
 21
10.02057729815859
 31
0.0
  0
LINE
  5
1AF
330
1F
100
AcDbEntity
  8
0
  6
Continuous
 62
     7
370
     5
100
AcDbLine
 10
4.167769747468883
 20
9.870431033053893
 30
0.0
 11
4.137413392544114
 21
9.732012591564751
 31
0.0
  0
LINE
  5
1B0
330
1F
100
AcDbEntity
  8
0
  6
Continuous
 62
     7
370
     5
100
AcDbLine
 10
4.137413392544114
 20
9.732012591564751
 30
0.0
 11
4.133820974727781
 21
9.732137726109648
 31
0.0
  0
LINE
  5
1B1
330
1F
100
AcDbEntity
  8
0
  6
Continuous
 62
     7
370
     5
100
AcDbLine
 10
4.159219650694454
 20
9.852200040202898
 30
0.0
 11
4.13306243547314
 21
9.826669796260393
 31
0.0
  0
LINE
  5
1B2
330
1F
100
AcDbEntity
  8
0
  6
Continuous
 62
     7
370
     5
100
AcDbLine
 10
4.159219650694454
 20
9.852200040202898
 30
0.0
 11
4.160103775588843
 21
9.851959754001105
 31
0.0
  0
LINE
  5
1B3
330
1F
100
AcDbEntity
  8
0
  6
Continuous
 62
     7
370
     5
100
AcDbLine
 10
4.137413392544114
 20
9.732012591564751
 30
0.0
 11
4.138297517438503
 21
9.731772305362961
 31
0.0
  0
LINE
  5
1B4
330
1F
100
AcDbEntity
  8
0
  6
Continuous
 62
     7
370
     5
100
AcDbLine
 10
4.202758927778168
 20
9.904581545678661
 30
0.0
 11
4.229406229722387
 21
9.824547575998227
 31
0.0
  0
LINE
  5
1B5
330
1F
100
AcDbEntity
  8
0
  6
Continuous
 62
     7
370
     5
100
AcDbLine
 10
4.229406229722387
 20
9.824547575998227
 30
0.0
 11
4.224322469794515
 21
9.819585670458758
 31
0.0
  0
LINE
  5
1B6
330
1F
100
AcDbEntity
  8
0
  6
Continuous
 62
     7
370
     5
100
AcDbLine
 10
4.215090769167193
 20
9.844916950239753
 30
0.0
 11
4.188645251532904
 21
9.819105314303866
 31
0.0
  0
LINE
  5
1B7
330
1F
100
AcDbEntity
  8
0
  6
Continuous
 62
     7
370
     5
100
AcDbLine
 10
4.188645251532904
 20
9.819105314303866
 30
0.0
 11
4.179775503222726
 21
9.776106465434303
 31
0.0
  0
LINE
  5
1B8
330
1F
100
AcDbEntity
  8
0
  6
Continuous
 62
     7
370
     5
100
AcDbLine
 10
4.179775503222726
 20
9.776106465434303
 30
0.0
 11
4.175230428002849
 21
9.77167033268398
 31
0.0
  0
LINE
  5
1B9
330
1F
100
AcDbEntity
  8
0
  6
Continuous
 62
     7
370
     5
100
AcDbLine
 10
4.202049123404352
 20
9.884108282132832
 30
0.0
 11
4.191484879715367
 21
9.832866253468036
 31
0.0
  0
LINE
  5
1BA
330
1F
100
AcDbEntity
  8
0
  6
Continuous
 62
     7
370
     5
100
AcDbLine
 10
4.191484879715367
 20
9.832866253468036
 30
0.0
 11
4.192369004609757
 21
9.832625967266245
 31
0.0
  0
LINE
  5
1BB
330
1F
100
AcDbEntity
  8
0
  6
Continuous
 62
     7
370
     5
100
AcDbLine
 10
4.202049123404352
 20
9.884108282132832
 30
0.0
 11
4.202933248298741
 21
9.883867995931037
 31
0.0
  0
LINE
  5
1BC
330
1F
100
AcDbEntity
  8
0
  6
Continuous
 62
     7
370
     5
100
AcDbLine
 10
4.202933248298741
 20
9.883867995931037
 30
0.0
 11
4.192369004609757
 21
9.832625967266245
 31
0.0
  0
LINE
  5
1BD
330
1F
100
AcDbEntity
  8
0
  6
Continuous
 62
     7
370
     5
100
AcDbLine
 10
4.192369004609757
 20
9.832625967266245
 30
0.0
 11
4.213216992631516
 21
9.852974242700097
 31
0.0
  0
LINE
  5
1BE
330
1F
100
AcDbEntity
  8
0
  6
Continuous
 62
     7
370
     5
100
AcDbLine
 10
4.213216992631516
 20
9.852974242700097
 30
0.0
 11
4.202933248298741
 21
9.883867995931037
 31
0.0
  0
LINE
  5
1BF
330
1F
100
AcDbEntity
  8
0
  6
Continuous
 62
     7
370
     5
100
AcDbLine
 10
4.229406229722387
 20
9.824547575998227
 30
0.0
 11
4.230290354616777
 21
9.824307289796436
 31
0.0
  0
LINE
  5
1C0
330
1F
100
AcDbEntity
  8
0
  6
Continuous
 62
     7
370
     5
100
AcDbLine
 10
4.179775503222726
 20
9.776106465434303
 30
0.0
 11
4.180659628117116
 21
9.775866179232512
 31
0.0
  0
LINE
  5
1C1
330
1F
100
AcDbEntity
  8
0
  6
Continuous
 62
     7
370
     5
100
AcDbLine
 10
4.188645251532904
 20
9.819105314303866
 30
0.0
 11
4.189529376427294
 21
9.818865028102075
 31
0.0
  0
LINE
  5
1C2
330
1F
100
AcDbEntity
  8
0
  6
Continuous
 62
     7
370
     5
100
AcDbLine
 10
4.215090769167193
 20
9.844916950239753
 30
0.0
 11
4.215974894061583
 21
9.844676664037958
 31
0.0
  0
LINE
  5
1C3
330
1F
100
AcDbEntity
  8
0
  6
Continuous
 62
     7
370
     5
100
AcDbLine
 10
4.091773039755611
 20
8.694305999193272
 30
0.0
 11
4.091773039755611
 21
8.701774057316827
 31
0.0
  0
LINE
  5
1C4
330
1F
100
AcDbEntity
  8
0
  6
Continuous
 62
     7
370
     5
100
AcDbLine
 10
4.028486827027882
 20
8.632536715442471
 30
0.0
 11
4.091773039755611
 21
8.694305999193272
 31
0.0
  0
LINE
  5
1C5
330
1F
100
AcDbEntity
  8
0
  6
Continuous
 62
     7
370
     5
100
AcDbLine
 10
4.091773039755611
 20
8.694305999193272
 30
0.0
 11
4.09265716465
 21
8.694065712991481
 31
0.0
  0
ARC
  5
1C6
330
1F
100
AcDbEntity
  8
0
  6
Continuous
 62
     7
370
     5
100
AcDbCircle
 10
4.191310867173544
 20
9.710892934155117
 30
0.0
 40
0.1717793719835702
100
AcDbArc
 50
325.6444286774286
 51
3.94650694527657
  0
SPLINE
  5
1C7
330
1F
100
AcDbEntity
  8
0
  6
Continuous
 62
     7
370
     5
100
AcDbSpline
210
0.0
220
0.0
230
1.0
 70
     8
 71
     3
 72
    11
 73
     7
 74
     0
 42
0.0000000001
 43
0.0000000001
 40
0.0
 40
0.0
 40
0.0
 40
0.0
 40
0.1117910587068239
 40
0.4565981360696431
 40
0.7280844948035574
 40
1.0
 40
1.0
 40
1.0
 40
1.0
 10
4.131970007526555
 20
8.810542286950495
 30
0.0
 10
4.132391667525956
 20
8.810639648529827
 30
0.0
 10
4.134113890859454
 20
8.811037311063515
 30
0.0
 10
4.136111907859881
 20
8.80859893413595
 30
0.0
 10
4.137578906535982
 20
8.803925963803234
 30
0.0
 10
4.137705907642525
 20
8.799979375438327
 30
0.0
 10
4.137769458344745
 20
8.798004522865531
 30
0.0
  0
SPLINE
  5
1C8
330
1F
100
AcDbEntity
  8
0
  6
Continuous
 62
     7
370
     5
100
AcDbSpline
210
0.0
220
0.0
230
1.0
 70
     8
 71
     3
 72
    11
 73
     7
 74
     0
 42
0.0000000001
 43
0.0000000001
 40
0.0
 40
0.0
 40
0.0
 40
0.0
 40
0.2800955792271784
 40
0.5593222781272428
 40
0.7794584533089832
 40
1.0
 40
1.0
 40
1.0
 40
1.0
 10
4.137769458344745
 20
8.798004522865531
 30
0.0
 10
4.137665499558844
 20
8.795252780475848
 30
0.0
 10
4.137457904476032
 20
8.789757831835595
 30
0.0
 10
4.135264644014871
 20
8.781169724442511
 30
0.0
 10
4.132284469423544
 20
8.77409967372292
 30
0.0
 10
4.130122080365316
 20
8.770759894581409
 30
0.0
 10
4.129039891264805
 20
8.769088468909275
 30
0.0
  0
SPLINE
  5
1C9
330
1F
100
AcDbEntity
  8
0
  6
Continuous
 62
     7
370
     5
100
AcDbSpline
210
0.0
220
0.0
230
1.0
 70
     8
 71
     3
 72
     9
 73
     5
 74
     0
 42
0.0000000001
 43
0.0000000001
 40
0.0
 40
0.0
 40
0.0
 40
0.0
 40
0.5596886163967522
 40
1.0
 40
1.0
 40
1.0
 40
1.0
 10
4.129039891264805
 20
8.769088468909275
 30
0.0
 10
4.126969097831156
 20
8.766590391941557
 30
0.0
 10
4.123269195112082
 20
8.762127058411921
 30
0.0
 10
4.119541489244134
 20
8.758494960012999
 30
0.0
 10
4.117900137915744
 20
8.756895705741591
 30
0.0
  0
LINE
  5
1CA
330
1F
100
AcDbEntity
  8
0
  6
Continuous
 62
     7
370
     5
100
AcDbLine
 10
4.117900137915739
 20
8.756895705741591
 30
0.0
 11
4.114771249050176
 21
8.75384181428828
 31
0.0
  0
LINE
  5
1CB
330
1F
100
AcDbEntity
  8
0
  6
Continuous
 62
     7
370
     5
100
AcDbLine
 10
4.114771249050176
 20
8.75384181428828
 30
0.0
 11
4.114771249050176
 21
8.716752956507468
 31
0.0
  0
LINE
  5
1CC
330
1F
100
AcDbEntity
  8
0
  6
Continuous
 62
     7
370
     5
100
AcDbLine
 10
4.114771249050176
 20
8.716752956507468
 30
0.0
 11
4.111729152079119
 21
8.713783776603921
 31
0.0
  0
LINE
  5
1CD
330
1F
100
AcDbEntity
  8
0
  6
Continuous
 62
     7
370
     5
100
AcDbLine
 10
4.12277321531106
 20
8.796680595785229
 30
0.0
 11
4.114771249050176
 21
8.788870431402994
 31
0.0
  0
LINE
  5
1CE
330
1F
100
AcDbEntity
  8
0
  6
Continuous
 62
     7
370
     5
100
AcDbLine
 10
4.114771249050176
 20
8.788870431402994
 30
0.0
 11
4.114771249050176
 21
8.762083782684017
 31
0.0
  0
SPLINE
  5
1CF
330
1F
100
AcDbEntity
  8
0
  6
Continuous
 62
     7
370
     5
100
AcDbSpline
210
0.0
220
0.0
230
1.0
 70
     8
 71
     3
 72
     9
 73
     5
 74
     0
 42
0.0000000001
 43
0.0000000001
 40
0.0
 40
0.0
 40
0.0
 40
0.0
 40
0.1905130414768678
 40
1.0
 40
1.0
 40
1.0
 40
1.0
 10
4.131579033314092
 20
8.801346957466266
 30
0.0
 10
4.131114216972883
 20
8.801567694440468
 30
0.0
 10
4.128674403206898
 20
8.802726339394579
 30
0.0
 10
4.125413154006931
 20
8.799385202515489
 30
0.0
 10
4.12277321531106
 20
8.796680595785229
 30
0.0
  0
SPLINE
  5
1D0
330
1F
100
AcDbEntity
  8
0
  6
Continuous
 62
     7
370
     5
100
AcDbSpline
210
0.0
220
0.0
230
1.0
 70
     8
 71
     3
 72
    11
 73
     7
 74
     0
 42
0.0000000001
 43
0.0000000001
 40
0.0
 40
0.0
 40
0.0
 40
0.0
 40
0.248987290931472
 40
0.3747723583960471
 40
0.5004462217264485
 40
1.0
 40
1.0
 40
1.0
 40
1.0
 10
4.134727002939396
 20
8.793899590513175
 30
0.0
 10
4.134528596852268
 20
8.796012161778165
 30
0.0
 10
4.134229958649037
 20
8.799191975945776
 30
0.0
 10
4.132617696212589
 20
8.801240528493618
 30
0.0
 10
4.129529479969531
 20
8.802300538122883
 30
0.0
 10
4.126265357686756
 20
8.799043036883777
 30
0.0
 10
4.12365734020545
 20
8.796440309583438
 30
0.0
  0
SPLINE
  5
1D1
330
1F
100
AcDbEntity
  8
0
  6
Continuous
 62
     7
370
     5
100
AcDbSpline
210
0.0
220
0.0
230
1.0
 70
     8
 71
     3
 72
    11
 73
     7
 74
     0
 42
0.0000000001
 43
0.0000000001
 40
0.0
 40
0.0
 40
0.0
 40
0.0
 40
0.4997012360365697
 40
0.6253063463238494
 40
0.7510780025507751
 40
1.0
 40
1.0
 40
1.0
 40
1.0
 10
4.123315511561012
 20
8.769143016911021
 30
0.0
 10
4.125976259335867
 20
8.771741294751464
 30
0.0
 10
4.12930581377679
 20
8.774992676789318
 30
0.0
 10
4.132550400542774
 20
8.782135991932246
 30
0.0
 10
4.134232541499843
 20
8.787473746345716
 30
0.0
 10
4.134529634048839
 20
8.791334654943367
 30
0.0
 10
4.134727002939396
 20
8.793899590513175
 30
0.0
  0
LINE
  5
1D2
330
1F
100
AcDbEntity
  8
0
  6
Continuous
 62
     7
370
     5
100
AcDbLine
 10
4.115655373944566
 20
8.761843496482224
 30
0.0
 11
4.123315511561009
 21
8.769143016911021
 31
0.0
  0
LINE
  5
1D3
330
1F
100
AcDbEntity
  8
0
  6
Continuous
 62
     7
370
     5
100
AcDbLine
 10
4.115655373944566
 20
8.788630145201203
 30
0.0
 11
4.115655373944566
 21
8.761843496482224
 31
0.0
  0
LINE
  5
1D4
330
1F
100
AcDbEntity
  8
0
  6
Continuous
 62
     7
370
     5
100
AcDbLine
 10
4.12365734020545
 20
8.796440309583438
 30
0.0
 11
4.115655373944566
 21
8.788630145201203
 31
0.0
  0
LINE
  5
1D5
330
1F
100
AcDbEntity
  8
0
  6
Continuous
 62
     7
370
     5
100
AcDbLine
 10
4.114771249050176
 20
8.788870431402994
 30
0.0
 11
4.115655373944566
 21
8.788630145201203
 31
0.0
  0
LINE
  5
1D6
330
1F
100
AcDbEntity
  8
0
  6
Continuous
 62
     7
370
     5
100
AcDbLine
 10
4.12277321531106
 20
8.796680595785229
 30
0.0
 11
4.12365734020545
 21
8.796440309583438
 31
0.0
  0
LINE
  5
1D7
330
1F
100
AcDbEntity
  8
0
  6
Continuous
 62
     7
370
     5
100
AcDbLine
 10
4.114771249050176
 20
8.762083782684017
 30
0.0
 11
4.115655373944566
 21
8.761843496482224
 31
0.0
  0
LINE
  5
1D8
330
1F
100
AcDbEntity
  8
0
  6
Continuous
 62
     7
370
     5
100
AcDbLine
 10
4.137769458344745
 20
8.798004522865531
 30
0.0
 11
4.138653583239135
 21
8.79776423666374
 31
0.0
  0
LINE
  5
1D9
330
1F
100
AcDbEntity
  8
0
  6
Continuous
 62
     7
370
     5
100
AcDbLine
 10
4.114771249050176
 20
8.716752956507468
 30
0.0
 11
4.115655373944566
 21
8.716512670305677
 31
0.0
  0
LINE
  5
1DA
330
1F
100
AcDbEntity
  8
0
  6
Continuous
 62
     7
370
     5
100
AcDbLine
 10
4.114771249050176
 20
8.75384181428828
 30
0.0
 11
4.115655373944566
 21
8.753601528086489
 31
0.0
  0
LINE
  5
1DB
330
1F
100
AcDbEntity
  8
0
  6
Continuous
 62
     7
370
     5
100
AcDbLine
 10
4.117900137915739
 20
8.756895705741591
 30
0.0
 11
4.118784262810128
 21
8.7566554195398
 31
0.0
  0
LINE
  5
1DC
330
1F
100
AcDbEntity
  8
0
  6
Continuous
 62
     7
370
     5
100
AcDbLine
 10
4.129039891264805
 20
8.769088468909275
 30
0.0
 11
4.129924016159194
 21
8.768848182707484
 31
0.0
  0
LINE
  5
1DD
330
1F
100
AcDbEntity
  8
0
  6
Continuous
 62
     7
370
     5
100
AcDbLine
 10
4.953723512549202
 20
8.995142981960659
 30
0.0
 11
4.677341089576863
 21
9.070257802365579
 31
0.0
  0
LINE
  5
1DE
330
1F
100
AcDbEntity
  8
0
  6
Continuous
 62
     7
370
     5
100
AcDbLine
 10
5.958973517473203
 20
6.632592233526233
 30
0.0
 11
4.953723512549202
 21
8.995142981960659
 31
0.0
  0
LINE
  5
1DF
330
1F
100
AcDbEntity
  8
0
  6
Continuous
 62
     7
370
     5
100
AcDbLine
 10
5.958973517473203
 20
5.453987170018088
 30
0.0
 11
5.958973517473203
 21
6.632592233526233
 31
0.0
  0
LINE
  5
1E0
330
1F
100
AcDbEntity
  8
0
  6
Continuous
 62
     7
370
     5
100
AcDbLine
 10
5.848420548284266
 20
5.376887194744447
 30
0.0
 11
5.958973517473203
 21
5.453987170018088
 31
0.0
  0
LINE
  5
1E1
330
1F
100
AcDbEntity
  8
0
  6
Continuous
 62
     7
370
     5
100
AcDbLine
 10
4.742899158037102
 20
5.677344220155661
 30
0.0
 11
5.848420548284266
 21
5.376887194744447
 31
0.0
  0
LINE
  5
1E2
330
1F
100
AcDbEntity
  8
0
  6
Continuous
 62
     7
370
     5
100
AcDbLine
 10
4.632346188848165
 20
5.81453605175324
 30
0.0
 11
4.742899158037102
 21
5.677344220155661
 31
0.0
  0
LINE
  5
1E3
330
1F
100
AcDbEntity
  8
0
  6
Continuous
 62
     7
370
     5
100
AcDbLine
 10
4.632346188848165
 20
7.636016598733262
 30
0.0
 11
4.632346188848165
 21
5.81453605175324
 31
0.0
  0
ARC
  5
1E4
330
1F
100
AcDbEntity
  8
0
  6
Continuous
 62
     7
370
     5
100
AcDbCircle
 10
4.353960220455629
 20
7.626712926936671
 30
0.0
 40
0.2785413895756765
100
AcDbArc
 50
1.9141151593376
 51
41.89864036297654
  0
LINE
  5
1E5
330
1F
100
AcDbEntity
  8
0
  6
Continuous
 62
     7
370
     5
100
AcDbLine
 10
4.561286207019304
 20
9.133692533759987
 30
0.0
 11
4.561286207019304
 21
7.812727015118581
 31
0.0
  0
ARC
  5
1E6
330
1F
100
AcDbEntity
  8
0
  6
Continuous
 62
     7
370
     5
100
AcDbCircle
 10
4.758797644071003
 20
9.357163428377738
 30
0.0
 40
0.2982448801027191
100
AcDbArc
 50
228.5286194251184
 51
254.1500076894843
  0
LINE
  5
1E7
330
1F
100
AcDbEntity
  8
0
  6
Continuous
 62
     7
370
     5
100
AcDbLine
 10
5.380735082435162
 20
7.638340617800347
 30
0.0
 11
5.502341688214553
 21
7.605290548063875
 31
0.0
  0
LINE
  5
1E8
330
1F
100
AcDbEntity
  8
0
  6
Continuous
 62
     7
370
     5
100
AcDbLine
 10
5.502341688214553
 20
7.605290548063875
 30
0.0
 11
5.502341688214553
 21
7.61386227062529
 31
0.0
  0
LINE
  5
1E9
330
1F
100
AcDbEntity
  8
0
  6
Continuous
 62
     7
370
     5
100
AcDbLine
 10
5.502341688214553
 20
7.61386227062529
 30
0.0
 11
5.380735082435162
 21
7.646912340361762
 31
0.0
  0
LINE
  5
1EA
330
1F
100
AcDbEntity
  8
0
  6
Continuous
 62
     7
370
     5
100
AcDbLine
 10
5.380735082435162
 20
7.646912340361762
 30
0.0
 11
5.380735082435162
 21
7.638340617800347
 31
0.0
  0
LINE
  5
1EB
330
1F
100
AcDbEntity
  8
0
  6
Continuous
 62
     7
370
     5
100
AcDbLine
 10
4.654843639212516
 20
7.83562235809609
 30
0.0
 11
4.776452320402455
 21
7.802571724307502
 31
0.0
  0
LINE
  5
1EC
330
1F
100
AcDbEntity
  8
0
  6
Continuous
 62
     7
370
     5
100
AcDbLine
 10
4.776452320402455
 20
7.802571724307502
 30
0.0
 11
4.776452320402455
 21
7.811143446868917
 31
0.0
  0
LINE
  5
1ED
330
1F
100
AcDbEntity
  8
0
  6
Continuous
 62
     7
370
     5
100
AcDbLine
 10
4.776452320402455
 20
7.811143446868917
 30
0.0
 11
4.654843639212516
 21
7.844194080657506
 31
0.0
  0
LINE
  5
1EE
330
1F
100
AcDbEntity
  8
0
  6
Continuous
 62
     7
370
     5
100
AcDbLine
 10
4.654843639212516
 20
7.844194080657506
 30
0.0
 11
4.654843639212516
 21
7.83562235809609
 31
0.0
  0
LINE
  5
1EF
330
1F
100
AcDbEntity
  8
0
  6
Continuous
 62
     7
370
     5
100
AcDbLine
 10
4.947030313524754
 20
7.764784003382544
 30
0.0
 11
4.954470660347281
 21
7.762761876543529
 31
0.0
  0
LINE
  5
1F0
330
1F
100
AcDbEntity
  8
0
  6
Continuous
 62
     7
370
     5
100
AcDbLine
 10
4.947030313524754
 20
7.7435512545993
 30
0.0
 11
4.947030313524754
 21
7.764784003382544
 31
0.0
  0
SPLINE
  5
1F1
330
1F
100
AcDbEntity
  8
0
  6
Continuous
 62
     7
370
     5
100
AcDbSpline
210
0.0
220
0.0
230
1.0
 70
     8
 71
     3
 72
     9
 73
     5
 74
     0
 42
0.0000000001
 43
0.0000000001
 40
0.0
 40
0.0
 40
0.0
 40
0.0
 40
0.5596569689505712
 40
1.0
 40
1.0
 40
1.0
 40
1.0
 10
4.945884686901034
 20
7.728102926863226
 30
0.0
 10
4.946298747735503
 20
7.730917786620954
 30
0.0
 10
4.947038595280416
 20
7.735947402821404
 30
0.0
 10
4.947032845430908
 20
7.741226597856185
 30
0.0
 10
4.947030313524754
 20
7.7435512545993
 30
0.0
  0
SPLINE
  5
1F2
330
1F
100
AcDbEntity
  8
0
  6
Continuous
 62
     7
370
     5
100
AcDbSpline
210
0.0
220
0.0
230
1.0
 70
     8
 71
     3
 72
    11
 73
     7
 74
     0
 42
0.0000000001
 43
0.0000000001
 40
0.0
 40
0.0
 40
0.0
 40
0.0
 40
0.2795460794440477
 40
0.5594155649742865
 40
0.7796908827070189
 40
1.0
 40
1.0
 40
1.0
 40
1.0
 10
4.925271709316282
 20
7.71815485153668
 30
0.0
 10
4.927899182307037
 20
7.717704377744159
 30
0.0
 10
4.933157168004797
 20
7.716802909007227
 30
0.0
 10
4.939303926341918
 20
7.719278677180531
 30
0.0
 10
4.943804088147085
 20
7.722998716054305
 30
0.0
 10
4.945191118514244
 20
7.726401436246704
 30
0.0
 10
4.945884686901034
 20
7.728102926863226
 30
0.0
  0
SPLINE
  5
1F3
330
1F
100
AcDbEntity
  8
0
  6
Continuous
 62
     7
370
     5
100
AcDbSpline
210
0.0
220
0.0
230
1.0
 70
     8
 71
     3
 72
    10
 73
     6
 74
     0
 42
0.0000000001
 43
0.0000000001
 40
0.0
 40
0.0
 40
0.0
 40
0.0
 40
0.2812080087123785
 40
0.5613276825906275
 40
1.0
 40
1.0
 40
1.0
 40
1.0
 10
4.909641792462605
 20
7.733960844111381
 30
0.0
 10
4.910236708871029
 20
7.731930249317581
 30
0.0
 10
4.911424239234785
 20
7.727876918563942
 30
0.0
 10
4.916811080197429
 20
7.721271642949221
 30
0.0
 10
4.922065179530075
 20
7.719336097560034
 30
0.0
 10
4.925271709316282
 20
7.71815485153668
 30
0.0
  0
SPLINE
  5
1F4
330
1F
100
AcDbEntity
  8
0
  6
Continuous
 62
     7
370
     5
100
AcDbSpline
210
0.0
220
0.0
230
1.0
 70
     8
 71
     3
 72
     9
 73
     5
 74
     0
 42
0.0000000001
 43
0.0000000001
 40
0.0
 40
0.0
 40
0.0
 40
0.0
 40
0.5602516492993446
 40
1.0
 40
1.0
 40
1.0
 40
1.0
 10
4.908761818389312
 20
7.747561017448877
 30
0.0
 10
4.908745468671804
 20
7.745058072211727
 30
0.0
 10
4.908716285861677
 20
7.740590534739449
 30
0.0
 10
4.909359111116846
 20
7.735985778203462
 30
0.0
 10
4.909641792462605
 20
7.733960844111381
 30
0.0
  0
LINE
  5
1F5
330
1F
100
AcDbEntity
  8
0
  6
Continuous
 62
     7
370
     5
100
AcDbLine
 10
4.908761818389312
 20
7.775184560365696
 30
0.0
 11
4.908761818389312
 21
7.747561017448877
 31
0.0
  0
LINE
  5
1F6
330
1F
100
AcDbEntity
  8
0
  6
Continuous
 62
     7
370
     5
100
AcDbLine
 10
4.901321471566784
 20
7.77720668720471
 30
0.0
 11
4.908761818389312
 21
7.775184560365696
 31
0.0
  0
LINE
  5
1F7
330
1F
100
AcDbEntity
  8
0
  6
Continuous
 62
     7
370
     5
100
AcDbLine
 10
4.901321471566784
 20
7.74721678414279
 30
0.0
 11
4.901321471566784
 21
7.77720668720471
 31
0.0
  0
SPLINE
  5
1F8
330
1F
100
AcDbEntity
  8
0
  6
Continuous
 62
     7
370
     5
100
AcDbSpline
210
0.0
220
0.0
230
1.0
 70
     8
 71
     3
 72
    11
 73
     7
 74
     0
 42
0.0000000001
 43
0.0000000001
 40
0.0
 40
0.0
 40
0.0
 40
0.0
 40
0.1870054041538076
 40
0.373867499745869
 40
0.560625552477866
 40
1.0
 40
1.0
 40
1.0
 40
1.0
 10
4.923976653132949
 20
7.711295097711345
 30
0.0
 10
4.921260383108855
 20
7.71226492918985
 30
0.0
 10
4.915829924630181
 20
7.714203848932223
 30
0.0
 10
4.908686395521097
 20
7.720359244518733
 30
0.0
 10
4.901468241038535
 20
7.731722452679963
 30
0.0
 10
4.901381993702001
 20
7.74082751250039
 30
0.0
 10
4.901321471566788
 20
7.747216784142789
 30
0.0
  0
SPLINE
  5
1F9
330
1F
100
AcDbEntity
  8
0
  6
Continuous
 62
     7
370
     5
100
AcDbSpline
210
0.0
220
0.0
230
1.0
 70
     8
 71
     3
 72
     9
 73
     5
 74
     0
 42
0.0000000001
 43
0.0000000001
 40
0.0
 40
0.0
 40
0.0
 40
0.0
 40
0.559159351279012
 40
1.0
 40
1.0
 40
1.0
 40
1.0
 10
4.947030313524754
 20
7.71665208968578
 30
0.0
 10
4.943494439661479
 20
7.713919872069929
 30
0.0
 10
4.937170886536258
 20
7.709033576938499
 30
0.0
 10
4.928013570343787
 20
7.710603161177291
 30
0.0
 10
4.923976653132949
 20
7.711295097711345
 30
0.0
  0
LINE
  5
1FA
330
1F
100
AcDbEntity
  8
0
  6
Continuous
 62
     7
370
     5
100
AcDbLine
 10
4.947030313524754
 20
7.706059852846507
 30
0.0
 11
4.947030313524754
 21
7.71665208968578
 31
0.0
  0
LINE
  5
1FB
330
1F
100
AcDbEntity
  8
0
  6
Continuous
 62
     7
370
     5
100
AcDbLine
 10
4.954470660347281
 20
7.704037726007493
 30
0.0
 11
4.947030313524754
 21
7.706059852846507
 31
0.0
  0
LINE
  5
1FC
330
1F
100
AcDbEntity
  8
0
  6
Continuous
 62
     7
370
     5
100
AcDbLine
 10
4.954470660347281
 20
7.762761876543529
 30
0.0
 11
4.954470660347281
 21
7.704037726007493
 31
0.0
  0
SPLINE
  5
1FD
330
1F
100
AcDbEntity
  8
0
  6
Continuous
 62
     7
370
     5
100
AcDbSpline
210
0.0
220
0.0
230
1.0
 70
     8
 71
     3
 72
    11
 73
     7
 74
     0
 42
0.0000000001
 43
0.0000000001
 40
0.0
 40
0.0
 40
0.0
 40
0.0
 40
0.2798028492463296
 40
0.559823895609525
 40
0.7799413081945828
 40
1.0
 40
1.0
 40
1.0
 40
1.0
 10
4.975233067491647
 20
7.686031870320202
 30
0.0
 10
4.976205613506129
 20
7.685666983808913
 30
0.0
 10
4.978151463950311
 20
7.684936926238894
 30
0.0
 10
4.980378433605158
 20
7.682716327087296
 30
0.0
 10
4.981856897063345
 20
7.680304084314752
 30
0.0
 10
4.982024908255181
 20
7.678777208717233
 30
0.0
 10
4.982108902644516
 20
7.678013872763307
 30
0.0
  0
SPLINE
  5
1FE
330
1F
100
AcDbEntity
  8
0
  6
Continuous
 62
     7
370
     5
100
AcDbSpline
210
0.0
220
0.0
230
1.0
 70
     8
 71
     3
 72
    11
 73
     7
 74
     0
 42
0.0000000001
 43
0.0000000001
 40
0.0
 40
0.0
 40
0.0
 40
0.0
 40
0.2790665253630979
 40
0.5586636189208098
 40
0.7792432808516853
 40
0.9999999999999998
 40
0.9999999999999998
 40
0.9999999999999998
 40
0.9999999999999998
 10
4.968290819201173
 20
7.681769331757496
 30
0.0
 10
4.968434164143483
 20
7.682677379947124
 30
0.0
 10
4.968721126559055
 20
7.684495202730106
 30
0.0
 10
4.970696812941012
 20
7.685921895571927
 30
0.0
 10
4.972923065902226
 20
7.686496516703139
 30
0.0
 10
4.974462861047975
 20
7.686186793866491
 30
0.0
 10
4.975233067491647
 20
7.686031870320202
 30
0.0
  0
SPLINE
  5
1FF
330
1F
100
AcDbEntity
  8
0
  6
Continuous
 62
     7
370
     5
100
AcDbSpline
210
0.0
220
0.0
230
1.0
 70
     8
 71
     3
 72
    11
 73
     7
 74
     0
 42
0.0000000001
 43
0.0000000001
 40
0.0
 40
0.0
 40
0.0
 40
0.0
 40
0.2799155574443386
 40
0.5598247740720832
 40
0.7799741888119695
 40
1.0
 40
1.0
 40
1.0
 40
1.0
 10
4.975233067491647
 20
7.673668917726598
 30
0.0
 10
4.974248728925164
 20
7.674034988880914
 30
0.0
 10
4.972280074090039
 20
7.674767122897078
 30
0.0
 10
4.969998254974916
 20
7.676996029878656
 30
0.0
 10
4.968535862860219
 20
7.679454838295571
 30
0.0
 10
4.968372485128413
 20
7.68099797837751
 30
0.0
 10
4.968290819201176
 20
7.681769331757495
 30
0.0
  0
SPLINE
  5
200
330
1F
100
AcDbEntity
  8
0
  6
Continuous
 62
     7
370
     5
100
AcDbSpline
210
0.0
220
0.0
230
1.0
 70
     8
 71
     3
 72
    11
 73
     7
 74
     0
 42
0.0000000001
 43
0.0000000001
 40
0.0
 40
0.0
 40
0.0
 40
0.0
 40
0.2793468437679733
 40
0.5589993834500328
 40
0.7793851835218592
 40
1.0
 40
1.0
 40
1.0
 40
1.0
 10
4.982108902644516
 20
7.678013872763307
 30
0.0
 10
4.981974759573351
 20
7.677100778338773
 30
0.0
 10
4.98170632663505
 20
7.675273590268698
 30
0.0
 10
4.979743493116464
 20
7.67383605591551
 30
0.0
 10
4.977542694441147
 20
7.673211219270675
 30
0.0
 10
4.976003209631865
 20
7.673516298764263
 30
0.0
 10
4.975233067491647
 20
7.673668917726598
 30
0.0
  0
SPLINE
  5
201
330
1F
100
AcDbEntity
  8
0
  6
Continuous
 62
     7
370
     5
100
AcDbSpline
210
0.0
220
0.0
230
1.0
 70
     8
 71
     3
 72
    11
 73
     7
 74
     0
 42
0.0000000001
 43
0.0000000001
 40
0.0
 40
0.0
 40
0.0
 40
0.0
 40
0.2799328308297562
 40
0.559379823324152
 40
0.7795204732267122
 40
1.0
 40
1.0
 40
1.0
 40
1.0
 10
5.131992977170606
 20
7.686698345622047
 30
0.0
 10
5.131610648065367
 20
7.689983626926824
 30
0.0
 10
5.130846653407405
 20
7.696548487755723
 30
0.0
 10
5.124973783737835
 20
7.705328378391524
 30
0.0
 10
5.117630598982825
 20
7.711627217829128
 30
0.0
 10
5.112468658987387
 20
7.713436556445406
 30
0.0
 10
5.109885703989704
 20
7.714341921526277
 30
0.0
  0
LINE
  5
202
330
1F
100
AcDbEntity
  8
0
  6
Continuous
 62
     7
370
     5
100
AcDbLine
 10
5.07777910277785
 20
7.701432515019188
 30
0.0
 11
5.131992977170606
 21
7.686698345622047
 31
0.0
  0
SPLINE
  5
203
330
1F
100
AcDbEntity
  8
0
  6
Continuous
 62
     7
370
     5
100
AcDbSpline
210
0.0
220
0.0
230
1.0
 70
     8
 71
     3
 72
     9
 73
     5
 74
     0
 42
0.0000000001
 43
0.0000000001
 40
0.0
 40
0.0
 40
0.0
 40
0.0
 40
0.5588909230188178
 40
1.0
 40
1.0
 40
1.0
 40
1.0
 10
5.084372682095886
 20
7.679261009992861
 30
0.0
 10
5.0822149483277
 20
7.683380593096045
 30
0.0
 10
5.078354206133978
 20
7.690751589713653
 30
0.0
 10
5.077955136163969
 20
7.698163190595323
 30
0.0
 10
5.07777910277785
 20
7.701432515019188
 30
0.0
  0
SPLINE
  5
204
330
1F
100
AcDbEntity
  8
0
  6
Continuous
 62
     7
370
     5
100
AcDbSpline
210
0.0
220
0.0
230
1.0
 70
     8
 71
     3
 72
     9
 73
     5
 74
     0
 42
0.0000000001
 43
0.0000000001
 40
0.0
 40
0.0
 40
0.0
 40
0.0
 40
0.5588963140147995
 40
0.9999999999999998
 40
0.9999999999999998
 40
0.9999999999999998
 40
0.9999999999999998
 10
5.108773283934783
 20
7.661071333172226
 30
0.0
 10
5.103387772656279
 20
7.663139311127832
 30
0.0
 10
5.093751796995942
 20
7.666839421333878
 30
0.0
 10
5.087243511026471
 20
7.675458918167993
 30
0.0
 10
5.084372682095886
 20
7.679261009992861
 30
0.0
  0
SPLINE
  5
205
330
1F
100
AcDbEntity
  8
0
  6
Continuous
 62
     7
370
     5
100
AcDbSpline
210
0.0
220
0.0
230
1.0
 70
     8
 71
     3
 72
     9
 73
     5
 74
     0
 42
0.0000000001
 43
0.0000000001
 40
0.0
 40
0.0
 40
0.0
 40
0.0
 40
0.5585821358403351
 40
1.0
 40
1.0
 40
1.0
 40
1.0
 10
5.132457869133856
 20
7.665580750404529
 30
0.0
 10
5.128737554951068
 20
7.663043328574069
 30
0.0
 10
5.122077273599267
 20
7.658500716722288
 30
0.0
 10
5.112847479800203
 20
7.660284111054949
 30
0.0
 10
5.108773283934787
 20
7.661071333172225
 30
0.0
  0
SPLINE
  5
206
330
1F
100
AcDbEntity
  8
0
  6
Continuous
 62
     7
370
     5
100
AcDbSpline
210
0.0
220
0.0
230
1.0
 70
     8
 71
     3
 72
     9
 73
     5
 74
     0
 42
0.0000000001
 43
0.0000000001
 40
0.0
 40
0.0
 40
0.0
 40
0.0
 40
0.5594310585035546
 40
1.0
 40
1.0
 40
1.0
 40
1.0
 10
5.139433323993133
 20
7.683291829582699
 30
0.0
 10
5.139064808392202
 20
7.679403300645071
 30
0.0
 10
5.138406075568319
 20
7.672452437123069
 30
0.0
 10
5.134277008042889
 20
7.667682317123537
 30
0.0
 10
5.132457869133856
 20
7.665580750404529
 30
0.0
  0
SPLINE
  5
207
330
1F
100
AcDbEntity
  8
0
  6
Continuous
 62
     7
370
     5
100
AcDbSpline
210
0.0
220
0.0
230
1.0
 70
     8
 71
     3
 72
    11
 73
     7
 74
     0
 42
0.0000000001
 43
0.0000000001
 40
0.0
 40
0.0
 40
0.0
 40
0.0
 40
0.279849504715579
 40
0.558806481661504
 40
0.7794219737741659
 40
1.0
 40
1.0
 40
1.0
 40
1.0
 10
5.108955920063199
 20
7.72180633922091
 30
0.0
 10
5.113565788022226
 20
7.720152395308316
 30
0.0
 10
5.122770821626727
 20
7.716849782428574
 30
0.0
 10
5.132671900525167
 20
7.705580425289432
 30
0.0
 10
5.138459619436591
 20
7.693986123829428
 30
0.0
 10
5.139108774182895
 20
7.686856392514117
 30
0.0
 10
5.139433323993133
 20
7.683291829582699
 30
0.0
  0
SPLINE
  5
208
330
1F
100
AcDbEntity
  8
0
  6
Continuous
 62
     7
370
     5
100
AcDbSpline
210
0.0
220
0.0
230
1.0
 70
     8
 71
     3
 72
    10
 73
     6
 74
     0
 42
0.0000000001
 43
0.0000000001
 40
0.0
 40
0.0
 40
0.0
 40
0.0
 40
0.2809062736634481
 40
0.5613914647444203
 40
1.0
 40
1.0
 40
1.0
 40
1.0
 10
5.08096900879353
 20
7.713202329868604
 30
0.0
 10
5.082658860063329
 20
7.715401783551385
 30
0.0
 10
5.086036029491327
 20
7.719797393903948
 30
0.0
 10
5.095570717132844
 20
7.72402196126912
 30
0.0
 10
5.103884785241969
 20
7.722645752577421
 30
0.0
 10
5.108955920063199
 20
7.72180633922091
 30
0.0
  0
LINE
  5
209
330
1F
100
AcDbEntity
  8
0
  6
Continuous
 62
     7
370
     5
100
AcDbLine
 10
5.08757919139597
 20
7.708041401084902
 30
0.0
 11
5.08096900879353
 21
7.713202329868604
 31
0.0
  0
SPLINE
  5
20A
330
1F
100
AcDbEntity
  8
0
  6
Continuous
 62
     7
370
     5
100
AcDbSpline
210
0.0
220
0.0
230
1.0
 70
     8
 71
     3
 72
    10
 73
     6
 74
     0
 42
0.0000000001
 43
0.0000000001
 40
0.0
 40
0.0
 40
0.0
 40
0.0
 40
0.2805689268943341
 40
0.561039829653717
 40
1.0
 40
1.0
 40
1.0
 40
1.0
 10
5.1098857039897
 20
7.714341921526279
 30
0.0
 10
5.107379887241025
 20
7.714819811757632
 30
0.0
 10
5.102369129216668
 20
7.715775425256813
 30
0.0
 10
5.093854331337104
 20
7.714592889932934
 30
0.0
 10
5.089957089634651
 20
7.710524018833448
 30
0.0
 10
5.08757919139597
 20
7.708041401084902
 30
0.0
  0
LINE
  5
20B
330
1F
100
AcDbEntity
  8
0
  6
Continuous
 62
     7
370
     5
100
AcDbLine
 10
5.201087545208415
 20
7.647878462545176
 30
0.0
 11
5.201087545208415
 21
7.637012541062866
 31
0.0
  0
SPLINE
  5
20C
330
1F
100
AcDbEntity
  8
0
  6
Continuous
 62
     7
370
     5
100
AcDbSpline
210
0.0
220
0.0
230
1.0
 70
     8
 71
     3
 72
     9
 73
     5
 74
     0
 42
0.0000000001
 43
0.0000000001
 40
0.0
 40
0.0
 40
0.0
 40
0.0
 40
0.5590685773958212
 40
1.0
 40
1.0
 40
1.0
 40
1.0
 10
5.225602294627576
 20
7.629319711408812
 30
0.0
 10
5.220131456121217
 20
7.631402282249204
 30
0.0
 10
5.210345825650205
 20
7.635127354493631
 30
0.0
 10
5.203920620191744
 20
7.643976566781957
 30
0.0
 10
5.201087545208419
 20
7.647878462545176
 30
0.0
  0
SPLINE
  5
20D
330
1F
100
AcDbEntity
  8
0
  6
Continuous
 62
     7
370
     5
100
AcDbSpline
210
0.0
220
0.0
230
1.0
 70
     8
 71
     3
 72
    11
 73
     7
 74
     0
 42
0.0000000001
 43
0.0000000001
 40
0.0
 40
0.0
 40
0.0
 40
0.0
 40
0.2794012614081558
 40
0.5592105604174773
 40
0.7795607741342307
 40
1.0
 40
1.0
 40
1.0
 40
1.0
 10
5.257426640004596
 20
7.65090181483398
 30
0.0
 10
5.256853086209382
 20
7.646556538747256
 30
0.0
 10
5.255705141000999
 20
7.637859640732627
 30
0.0
 10
5.246908466235526
 20
7.630473922006139
 30
0.0
 10
5.236553734515684
 20
7.627245311089031
 30
0.0
 10
5.229253266004343
 20
7.62862815155286
 30
0.0
 10
5.225602294627576
 20
7.629319711408812
 30
0.0
  0
SPLINE
  5
20E
330
1F
100
AcDbEntity
  8
0
  6
Continuous
 62
     7
370
     5
100
AcDbSpline
210
0.0
220
0.0
230
1.0
 70
     8
 71
     3
 72
    11
 73
     7
 74
     0
 42
0.0000000001
 43
0.0000000001
 40
0.0
 40
0.0
 40
0.0
 40
0.0
 40
0.2795931469164907
 40
0.5593413418779553
 40
0.7795997570519512
 40
1.0
 40
1.0
 40
1.0
 40
1.0
 10
5.225834740609199
 20
7.690041180206692
 30
0.0
 10
5.230492950996549
 20
7.688249235360098
 30
0.0
 10
5.239811954976234
 20
7.684664351946046
 30
0.0
 10
5.250098174234628
 20
7.673542202691193
 30
0.0
 10
5.256488192507593
 20
7.661801304711981
 30
0.0
 10
5.257113757058767
 20
7.654535757608568
 30
0.0
 10
5.257426640004596
 20
7.65090181483398
 30
0.0
  0
SPLINE
  5
20F
330
1F
100
AcDbEntity
  8
0
  6
Continuous
 62
     7
370
     5
100
AcDbSpline
210
0.0
220
0.0
230
1.0
 70
     8
 71
     3
 72
     9
 73
     5
 74
     0
 42
0.0000000001
 43
0.0000000001
 40
0.0
 40
0.0
 40
0.0
 40
0.0
 40
0.5587996069230953
 40
1.0
 40
1.0
 40
1.0
 40
1.0
 10
5.201087545208415
 20
7.685579056418325
 30
0.0
 10
5.205012255256528
 20
7.68812848053729
 30
0.0
 10
5.212035721270971
 20
7.692690803215008
 30
0.0
 10
5.221610392083237
 20
7.690852319808368
 30
0.0
 10
5.225834740609199
 20
7.690041180206692
 30
0.0
  0
LINE
  5
210
330
1F
100
AcDbEntity
  8
0
  6
Continuous
 62
     7
370
     5
100
AcDbLine
 10
5.201087545208415
 20
7.695736691598902
 30
0.0
 11
5.201087545208415
 21
7.685579056418325
 31
0.0
  0
LINE
  5
211
330
1F
100
AcDbEntity
  8
0
  6
Continuous
 62
     7
370
     5
100
AcDbLine
 10
5.193647198385888
 20
7.697758818437916
 30
0.0
 11
5.201087545208415
 21
7.695736691598902
 31
0.0
  0
LINE
  5
212
330
1F
100
AcDbEntity
  8
0
  6
Continuous
 62
     7
370
     5
100
AcDbLine
 10
5.193647198385888
 20
7.639034667901881
 30
0.0
 11
5.193647198385888
 21
7.697758818437916
 31
0.0
  0
LINE
  5
213
330
1F
100
AcDbEntity
  8
0
  6
Continuous
 62
     7
370
     5
100
AcDbLine
 10
5.201087545208415
 20
7.637012541062866
 30
0.0
 11
5.193647198385888
 21
7.639034667901881
 31
0.0
  0
LINE
  5
214
330
1F
100
AcDbEntity
  8
0
  6
Continuous
 62
     7
370
     5
100
AcDbLine
 10
5.337151460880614
 20
7.658757434816243
 30
0.0
 11
5.344591807703141
 21
7.656735307977228
 31
0.0
  0
LINE
  5
215
330
1F
100
AcDbEntity
  8
0
  6
Continuous
 62
     7
370
     5
100
AcDbLine
 10
5.337151460880614
 20
7.621668451319013
 30
0.0
 11
5.337151460880614
 21
7.658757434816243
 31
0.0
  0
LINE
  5
216
330
1F
100
AcDbEntity
  8
0
  6
Continuous
 62
     7
370
     5
100
AcDbLine
 10
5.331222012938644
 20
7.62327994821694
 30
0.0
 11
5.337151460880614
 21
7.621668451319013
 31
0.0
  0
SPLINE
  5
217
330
1F
100
AcDbEntity
  8
0
  6
Continuous
 62
     7
370
     5
100
AcDbSpline
210
0.0
220
0.0
230
1.0
 70
     8
 71
     3
 72
     9
 73
     5
 74
     0
 42
0.0000000001
 43
0.0000000001
 40
0.0
 40
0.0
 40
0.0
 40
0.0
 40
0.5597311169488086
 40
1.0
 40
1.0
 40
1.0
 40
1.0
 10
5.310110936821843
 20
7.627697463955775
 30
0.0
 10
5.314035538274356
 20
7.627109271997076
 30
0.0
 10
5.321047121753785
 20
7.626058424651107
 30
0.0
 10
5.328111699281363
 20
7.624129287344272
 30
0.0
 10
5.331222012938644
 20
7.62327994821694
 30
0.0
  0
SPLINE
  5
218
330
1F
100
AcDbEntity
  8
0
  6
Continuous
 62
     7
370
     5
100
AcDbSpline
210
0.0
220
0.0
230
1.0
 70
     8
 71
     3
 72
    11
 73
     7
 74
     0
 42
0.0000000001
 43
0.0000000001
 40
0.0
 40
0.0
 40
0.0
 40
0.0
 40
0.2801060872143782
 40
0.5593246407873248
 40
0.7794668249621232
 40
1.0
 40
1.0
 40
1.0
 40
1.0
 10
5.293567839326065
 20
7.611797794510442
 30
0.0
 10
5.293765239766613
 20
7.614394405684838
 30
0.0
 10
5.294159415172074
 20
7.619579400508862
 30
0.0
 10
5.29831443892834
 20
7.62489833776934
 30
0.0
 10
5.303962487735467
 20
7.627524058873941
 30
0.0
 10
5.308060241877153
 20
7.627639628082091
 30
0.0
 10
5.310110936821848
 20
7.627697463955774
 30
0.0
  0
SPLINE
  5
219
330
1F
100
AcDbEntity
  8
0
  6
Continuous
 62
     7
370
     5
100
AcDbSpline
210
0.0
220
0.0
230
1.0
 70
     8
 71
     3
 72
    11
 73
     7
 74
     0
 42
0.0000000001
 43
0.0000000001
 40
0.0
 40
0.0
 40
0.0
 40
0.0
 40
0.2796925180848716
 40
0.5594005034070097
 40
0.779499630623477
 40
1.0
 40
1.0
 40
1.0
 40
1.0
 10
5.309446805445773
 20
7.587134903716325
 30
0.0
 10
5.306929271583629
 20
7.588701783891883
 30
0.0
 10
5.301894064637527
 20
7.59183563089283
 30
0.0
 10
5.296660311891058
 20
7.598676421171536
 30
0.0
 10
5.293942136230953
 20
7.605604235307842
 30
0.0
 10
5.293692680685183
 20
7.609732021754724
 30
0.0
 10
5.293567839326065
 20
7.611797794510442
 30
0.0
  0
SPLINE
  5
21A
330
1F
100
AcDbEntity
  8
0
  6
Continuous
 62
     7
370
     5
100
AcDbSpline
210
0.0
220
0.0
230
1.0
 70
     8
 71
     3
 72
     9
 73
     5
 74
     0
 42
0.0000000001
 43
0.0000000001
 40
0.0
 40
0.0
 40
0.0
 40
0.0
 40
0.5602791532087974
 40
1.0
 40
1.0
 40
1.0
 40
1.0
 10
5.328333041452744
 20
7.580794648969606
 30
0.0
 10
5.32478834459333
 20
7.581747111753058
 30
0.0
 10
5.318461682537253
 20
7.583447090733175
 30
0.0
 10
5.31220013738316
 20
7.586008568530323
 30
0.0
 10
5.309446805445777
 20
7.587134903716323
 30
0.0
  0
LINE
  5
21B
330
1F
100
AcDbEntity
  8
0
  6
Continuous
 62
     7
370
     5
100
AcDbLine
 10
5.344591807703141
 20
7.576375864685968
 30
0.0
 11
5.328333041452744
 21
7.580794648969606
 31
0.0
  0
LINE
  5
21C
330
1F
100
AcDbEntity
  8
0
  6
Continuous
 62
     7
370
     5
100
AcDbLine
 10
5.344591807703141
 20
7.656735307977228
 30
0.0
 11
5.344591807703141
 21
7.576375864685968
 31
0.0
  0
LWPOLYLINE
  5
21D
330
1F
100
AcDbEntity
  8
0
  6
Continuous
 62
     7
370
     5
100
AcDbPolyline
 90
       17
 70
   128
 43
0.0
 10
5.665346508239114
 20
5.587361682609078
 10
5.670867100302687
 20
5.55896333337063
 10
5.686588335220577
 20
5.53188769173517
 10
5.710115189217836
 20
5.510257144167351
 10
5.73787172991643
 20
5.497363146101987
 10
5.765624119793924
 20
5.495171006249277
 10
5.789150973791179
 20
5.504013364223191
 10
5.804870133298521
 20
5.522544180340036
 10
5.810390725362099
 20
5.547941772316678
 10
5.804870133298521
 20
5.576340121555126
 10
5.789150973791179
 20
5.603415199138467
 10
5.765624119793924
 20
5.625045746706286
 10
5.73787172991643
 20
5.63793861666742
 10
5.710115189217836
 20
5.64013188462436
 10
5.686588335220577
 20
5.631289526650448
 10
5.670867100302687
 20
5.61275927458572
 10
5.665346508239114
 20
5.587361682609078
  0
LWPOLYLINE
  5
21E
330
1F
100
AcDbEntity
  8
0
  6
Continuous
 62
     7
370
     5
100
AcDbPolyline
 90
       17
 70
   128
 43
0.0
 10
5.223138782304467
 20
6.08255496060646
 10
5.228659374368041
 20
6.054156642797119
 10
5.244380609285935
 20
6.027080969732554
 10
5.267907463283189
 20
6.005450422164735
 10
5.295659853160684
 20
5.992557583632708
 10
5.323414318448731
 20
5.990364848298777
 10
5.346941172445985
 20
5.999207206272692
 10
5.362662407363875
 20
6.017737489766524
 10
5.368182999427453
 20
6.043135050314062
 10
5.362662407363875
 20
6.071533368123403
 10
5.346941172445985
 20
6.098609041187968
 10
5.323414318448731
 20
6.120239604470341
 10
5.295659853160684
 20
6.133133007054485
 10
5.267907463283189
 20
6.135325178336298
 10
5.244380609285935
 20
6.12648280464783
 10
5.228659374368041
 20
6.107952521154
 10
5.223138782304467
 20
6.08255496060646
  0
LWPOLYLINE
  5
21F
330
1F
100
AcDbEntity
  8
0
  6
Continuous
 62
     7
370
     5
100
AcDbPolyline
 90
       17
 70
   128
 43
0.0
 10
4.83620546555374
 20
5.973423338250011
 10
4.841726057617318
 20
5.945024989011564
 10
4.857447292535208
 20
5.917949347376104
 10
4.880974146532462
 20
5.896318736950076
 10
4.908728611820508
 20
5.883425365795035
 10
4.936481001698004
 20
5.881233163084117
 10
4.960007855695258
 20
5.890075583916241
 10
4.975729090613148
 20
5.908605835980969
 10
4.981249682676725
 20
5.934003427957612
 10
4.975729090613148
 20
5.962401745766954
 10
4.960007855695258
 20
5.989477418831517
 10
4.936481001698004
 20
6.011107966399336
 10
4.908728611820508
 20
6.024000804931365
 10
4.880974146532462
 20
6.026193540265294
 10
4.857447292535208
 20
6.017351182291379
 10
4.841726057617318
 20
5.998820898797549
 10
4.83620546555374
 20
5.973423338250011
  0
LWPOLYLINE
  5
220
330
1F
100
AcDbEntity
  8
0
  6
Continuous
 62
     7
370
     5
100
AcDbPolyline
 90
       17
 70
   128
 43
0.0
 10
4.780928980959274
 20
7.11347838269223
 10
4.786449573022848
 20
7.085080033453783
 10
4.802170807940737
 20
7.058004391818323
 10
4.825697661937992
 20
7.036373812821398
 10
4.853452127226038
 20
7.023480410237255
 10
4.881204517103537
 20
7.021288238955441
 10
4.90473344651134
 20
7.030130064306342
 10
4.920452606018681
 20
7.048660880423185
 10
4.925973198082259
 20
7.074058472399831
 10
4.920452606018681
 20
7.102456758780066
 10
4.90473344651134
 20
7.129531899221619
 10
4.881204517103537
 20
7.151163010841555
 10
4.853452127226038
 20
7.164055817944477
 10
4.825697661937992
 20
7.166248584707513
 10
4.802170807940737
 20
7.157406226733598
 10
4.786449573022848
 20
7.138875911810663
 10
4.780928980959274
 20
7.11347838269223
  0
LWPOLYLINE
  5
221
330
1F
100
AcDbEntity
  8
0
  6
Continuous
 62
     7
370
     5
100
AcDbPolyline
 90
       17
 70
   128
 43
0.0
 10
5.554795614460725
 20
6.796012078797969
 10
5.560316206524302
 20
6.767613760988628
 10
5.576037441442192
 20
6.74053808792406
 10
5.599564295439447
 20
6.718907540356243
 10
5.627316685316942
 20
6.706014701824217
 10
5.655071150604988
 20
6.703821966490286
 10
5.678598004602243
 20
6.7126643244642
 10
5.694321314930684
 20
6.731194043905914
 10
5.699837756173162
 20
6.756592732557687
 10
5.694321314930684
 20
6.784989922262795
 10
5.678598004602243
 20
6.812066190808581
 10
5.655071150604988
 20
6.8336967383764
 10
5.627316685316942
 20
6.846590109531438
 10
5.599564295439447
 20
6.848782312242358
 10
5.576037441442192
 20
6.839939954268444
 10
5.560316206524302
 20
6.821409639345506
 10
5.554795614460725
 20
6.796012078797969
  0
LINE
  5
222
330
1F
100
AcDbEntity
  8
0
  6
Continuous
 62
     7
370
     5
100
AcDbLine
 10
5.272309409060198
 20
7.676380115103929
 30
0.0
 11
5.279749755882726
 21
7.674357988264914
 31
0.0
  0
LINE
  5
223
330
1F
100
AcDbEntity
  8
0
  6
Continuous
 62
     7
370
     5
100
AcDbLine
 10
5.272309409060198
 20
7.593960179713732
 30
0.0
 11
5.272309409060198
 21
7.676380115103929
 31
0.0
  0
LINE
  5
224
330
1F
100
AcDbEntity
  8
0
  6
Continuous
 62
     7
370
     5
100
AcDbLine
 10
5.279749755882726
 20
7.591938052874718
 30
0.0
 11
5.272309409060198
 21
7.593960179713732
 31
0.0
  0
LINE
  5
225
330
1F
100
AcDbEntity
  8
0
  6
Continuous
 62
     7
370
     5
100
AcDbLine
 10
5.279749755882726
 20
7.674357988264914
 30
0.0
 11
5.279749755882726
 21
7.591938052874718
 31
0.0
  0
LINE
  5
226
330
1F
100
AcDbEntity
  8
0
  6
Continuous
 62
     7
370
     5
100
AcDbLine
 10
5.179827039531996
 20
7.642790690948186
 30
0.0
 11
5.169196786693789
 21
7.645679765890847
 31
0.0
  0
LINE
  5
227
330
1F
100
AcDbEntity
  8
0
  6
Continuous
 62
     7
370
     5
100
AcDbLine
 10
5.179827039531996
 20
7.650002413294454
 30
0.0
 11
5.179827039531996
 21
7.642790690948186
 31
0.0
  0
LINE
  5
228
330
1F
100
AcDbEntity
  8
0
  6
Continuous
 62
     7
370
     5
100
AcDbLine
 10
5.169196786693789
 20
7.652891488237115
 30
0.0
 11
5.179827039531996
 21
7.650002413294454
 31
0.0
  0
LINE
  5
229
330
1F
100
AcDbEntity
  8
0
  6
Continuous
 62
     7
370
     5
100
AcDbLine
 10
5.169196786693789
 20
7.704403916426882
 30
0.0
 11
5.169196786693789
 21
7.652891488237115
 31
0.0
  0
LINE
  5
22A
330
1F
100
AcDbEntity
  8
0
  6
Continuous
 62
     7
370
     5
100
AcDbLine
 10
5.161756439871262
 20
7.706426043265897
 30
0.0
 11
5.169196786693789
 21
7.704403916426882
 31
0.0
  0
LINE
  5
22B
330
1F
100
AcDbEntity
  8
0
  6
Continuous
 62
     7
370
     5
100
AcDbLine
 10
5.161756439871262
 20
7.654913615076129
 30
0.0
 11
5.161756439871262
 21
7.706426043265897
 31
0.0
  0
LINE
  5
22C
330
1F
100
AcDbEntity
  8
0
  6
Continuous
 62
     7
370
     5
100
AcDbLine
 10
5.15112618703305
 20
7.657802690018788
 30
0.0
 11
5.161756439871262
 21
7.654913615076129
 31
0.0
  0
LINE
  5
22D
330
1F
100
AcDbEntity
  8
0
  6
Continuous
 62
     7
370
     5
100
AcDbLine
 10
5.15112618703305
 20
7.650590967672521
 30
0.0
 11
5.15112618703305
 21
7.657802690018788
 31
0.0
  0
LINE
  5
22E
330
1F
100
AcDbEntity
  8
0
  6
Continuous
 62
     7
370
     5
100
AcDbLine
 10
5.161756439871262
 20
7.647701892729861
 30
0.0
 11
5.15112618703305
 21
7.650590967672521
 31
0.0
  0
LINE
  5
22F
330
1F
100
AcDbEntity
  8
0
  6
Continuous
 62
     7
370
     5
100
AcDbLine
 10
5.161756439871262
 20
7.624006107875701
 30
0.0
 11
5.161756439871262
 21
7.647701892729861
 31
0.0
  0
LINE
  5
230
330
1F
100
AcDbEntity
  8
0
  6
Continuous
 62
     7
370
     5
100
AcDbLine
 10
5.169196786693789
 20
7.621983981036687
 30
0.0
 11
5.161756439871262
 21
7.624006107875701
 31
0.0
  0
LINE
  5
231
330
1F
100
AcDbEntity
  8
0
  6
Continuous
 62
     7
370
     5
100
AcDbLine
 10
5.169196786693789
 20
7.645679765890847
 30
0.0
 11
5.169196786693789
 21
7.621983981036687
 31
0.0
  0
LINE
  5
232
330
1F
100
AcDbEntity
  8
0
  6
Continuous
 62
     7
370
     5
100
AcDbLine
 10
4.989549249467043
 20
7.753228267664022
 30
0.0
 11
5.028880354804196
 21
7.742538915997028
 31
0.0
  0
LINE
  5
233
330
1F
100
AcDbEntity
  8
0
  6
Continuous
 62
     7
370
     5
100
AcDbLine
 10
4.989549249467043
 20
7.744986299268286
 30
0.0
 11
4.989549249467043
 21
7.753228267664022
 31
0.0
  0
LINE
  5
234
330
1F
100
AcDbEntity
  8
0
  6
Continuous
 62
     7
370
     5
100
AcDbLine
 10
5.021440007981669
 20
7.736319074440307
 30
0.0
 11
4.989549249467043
 21
7.744986299268286
 31
0.0
  0
LINE
  5
235
330
1F
100
AcDbEntity
  8
0
  6
Continuous
 62
     7
370
     5
100
AcDbLine
 10
5.021440007981669
 20
7.664201599544782
 30
0.0
 11
5.021440007981669
 21
7.736319074440307
 31
0.0
  0
LINE
  5
236
330
1F
100
AcDbEntity
  8
0
  6
Continuous
 62
     7
370
     5
100
AcDbLine
 10
5.028880354804196
 20
7.662179472705767
 30
0.0
 11
5.021440007981669
 21
7.664201599544782
 31
0.0
  0
LINE
  5
237
330
1F
100
AcDbEntity
  8
0
  6
Continuous
 62
     7
370
     5
100
AcDbLine
 10
5.028880354804196
 20
7.742538915997028
 30
0.0
 11
5.028880354804196
 21
7.662179472705767
 31
0.0
  0
LINE
  5
238
330
1F
100
AcDbEntity
  8
0
  6
Continuous
 62
     7
370
     5
100
AcDbLine
 10
4.971478649806305
 20
7.758139469445696
 30
0.0
 11
4.978918996628832
 21
7.756117342606682
 31
0.0
  0
LINE
  5
239
330
1F
100
AcDbEntity
  8
0
  6
Continuous
 62
     7
370
     5
100
AcDbLine
 10
4.971478649806305
 20
7.699415318909661
 30
0.0
 11
4.971478649806305
 21
7.758139469445696
 31
0.0
  0
LINE
  5
23A
330
1F
100
AcDbEntity
  8
0
  6
Continuous
 62
     7
370
     5
100
AcDbLine
 10
4.978918996628832
 20
7.697393192070646
 30
0.0
 11
4.971478649806305
 21
7.699415318909661
 31
0.0
  0
LINE
  5
23B
330
1F
100
AcDbEntity
  8
0
  6
Continuous
 62
     7
370
     5
100
AcDbLine
 10
4.978918996628832
 20
7.756117342606682
 30
0.0
 11
4.978918996628832
 21
7.697393192070646
 31
0.0
  0
SPLINE
  5
23C
330
1F
100
AcDbEntity
  8
0
  6
Continuous
 62
     7
370
     5
100
AcDbSpline
210
0.0
220
0.0
230
1.0
 70
     8
 71
     3
 72
    11
 73
     7
 74
     0
 42
0.0000000001
 43
0.0000000001
 40
0.0
 40
0.0
 40
0.0
 40
0.0
 40
0.2799328308297562
 40
0.559379823324152
 40
0.7795204732267122
 40
1.0
 40
1.0
 40
1.0
 40
1.0
 10
4.878998355688654
 20
7.755456862721846
 30
0.0
 10
4.878616026583416
 20
7.758742144026623
 30
0.0
 10
4.87785203192545
 20
7.765307004855522
 30
0.0
 10
4.871979162255883
 20
7.774086895491325
 30
0.0
 10
4.864635977500878
 20
7.780385734928925
 30
0.0
 10
4.859474037505441
 20
7.782195073545204
 30
0.0
 10
4.856891082507753
 20
7.783100438626076
 30
0.0
  0
LINE
  5
23D
330
1F
100
AcDbEntity
  8
0
  6
Continuous
 62
     7
370
     5
100
AcDbLine
 10
4.824784481295899
 20
7.770191032118987
 30
0.0
 11
4.878998355688654
 21
7.755456862721846
 31
0.0
  0
SPLINE
  5
23E
330
1F
100
AcDbEntity
  8
0
  6
Continuous
 62
     7
370
     5
100
AcDbSpline
210
0.0
220
0.0
230
1.0
 70
     8
 71
     3
 72
     9
 73
     5
 74
     0
 42
0.0000000001
 43
0.0000000001
 40
0.0
 40
0.0
 40
0.0
 40
0.0
 40
0.5588909230188178
 40
1.0
 40
1.0
 40
1.0
 40
1.0
 10
4.831378060613936
 20
7.748019527092661
 30
0.0
 10
4.829220326845757
 20
7.752139110195842
 30
0.0
 10
4.825359584652035
 20
7.75951010681345
 30
0.0
 10
4.824960514682022
 20
7.766921707695121
 30
0.0
 10
4.824784481295899
 20
7.770191032118987
 30
0.0
  0
SPLINE
  5
23F
330
1F
100
AcDbEntity
  8
0
  6
Continuous
 62
     7
370
     5
100
AcDbSpline
210
0.0
220
0.0
230
1.0
 70
     8
 71
     3
 72
     9
 73
     5
 74
     0
 42
0.0000000001
 43
0.0000000001
 40
0.0
 40
0.0
 40
0.0
 40
0.0
 40
0.5588963140147995
 40
0.9999999999999998
 40
0.9999999999999998
 40
0.9999999999999998
 40
0.9999999999999998
 10
4.855778662452832
 20
7.729829850272024
 30
0.0
 10
4.850393151174333
 20
7.731897828227631
 30
0.0
 10
4.840757175513987
 20
7.735597938433676
 30
0.0
 10
4.83424888954452
 20
7.744217435267793
 30
0.0
 10
4.831378060613936
 20
7.748019527092661
 30
0.0
  0
SPLINE
  5
240
330
1F
100
AcDbEntity
  8
0
  6
Continuous
 62
     7
370
     5
100
AcDbSpline
210
0.0
220
0.0
230
1.0
 70
     8
 71
     3
 72
     9
 73
     5
 74
     0
 42
0.0000000001
 43
0.0000000001
 40
0.0
 40
0.0
 40
0.0
 40
0.0
 40
0.5585821358403351
 40
1.0
 40
1.0
 40
1.0
 40
1.0
 10
4.879463247651905
 20
7.734339267504328
 30
0.0
 10
4.875742933469117
 20
7.731801845673866
 30
0.0
 10
4.86908265211732
 20
7.727259233822088
 30
0.0
 10
4.859852858318256
 20
7.729042628154746
 30
0.0
 10
4.855778662452836
 20
7.729829850272023
 30
0.0
  0
SPLINE
  5
241
330
1F
100
AcDbEntity
  8
0
  6
Continuous
 62
     7
370
     5
100
AcDbSpline
210
0.0
220
0.0
230
1.0
 70
     8
 71
     3
 72
     9
 73
     5
 74
     0
 42
0.0000000001
 43
0.0000000001
 40
0.0
 40
0.0
 40
0.0
 40
0.0
 40
0.5594310585035546
 40
1.0
 40
1.0
 40
1.0
 40
1.0
 10
4.886438702511182
 20
7.752050346682497
 30
0.0
 10
4.886070186910247
 20
7.74816181774487
 30
0.0
 10
4.885411454086364
 20
7.74121095422287
 30
0.0
 10
4.881282386560946
 20
7.736440834223333
 30
0.0
 10
4.879463247651905
 20
7.734339267504328
 30
0.0
  0
SPLINE
  5
242
330
1F
100
AcDbEntity
  8
0
  6
Continuous
 62
     7
370
     5
100
AcDbSpline
210
0.0
220
0.0
230
1.0
 70
     8
 71
     3
 72
    11
 73
     7
 74
     0
 42
0.0000000001
 43
0.0000000001
 40
0.0
 40
0.0
 40
0.0
 40
0.0
 40
0.279849504715579
 40
0.558806481661504
 40
0.7794219737741659
 40
1.0
 40
1.0
 40
1.0
 40
1.0
 10
4.855961298581253
 20
7.790564856320709
 30
0.0
 10
4.860571166540275
 20
7.788910912408115
 30
0.0
 10
4.869776200144776
 20
7.785608299528373
 30
0.0
 10
4.879677279043211
 20
7.774338942389232
 30
0.0
 10
4.885464997954644
 20
7.762744640929224
 30
0.0
 10
4.886114152700944
 20
7.755614909613917
 30
0.0
 10
4.886438702511182
 20
7.752050346682497
 30
0.0
  0
SPLINE
  5
243
330
1F
100
AcDbEntity
  8
0
  6
Continuous
 62
     7
370
     5
100
AcDbSpline
210
0.0
220
0.0
230
1.0
 70
     8
 71
     3
 72
    10
 73
     6
 74
     0
 42
0.0000000001
 43
0.0000000001
 40
0.0
 40
0.0
 40
0.0
 40
0.0
 40
0.2809062736634481
 40
0.5613914647444203
 40
1.0
 40
1.0
 40
1.0
 40
1.0
 10
4.827974387311579
 20
7.781960846968403
 30
0.0
 10
4.829664238581377
 20
7.784160300651184
 30
0.0
 10
4.833041408009371
 20
7.788555911003747
 30
0.0
 10
4.842576095650893
 20
7.79278047836892
 30
0.0
 10
4.850890163760018
 20
7.791404269677222
 30
0.0
 10
4.855961298581253
 20
7.790564856320709
 30
0.0
  0
LINE
  5
244
330
1F
100
AcDbEntity
  8
0
  6
Continuous
 62
     7
370
     5
100
AcDbLine
 10
4.834584569914023
 20
7.776799918184702
 30
0.0
 11
4.827974387311579
 21
7.781960846968403
 31
0.0
  0
SPLINE
  5
245
330
1F
100
AcDbEntity
  8
0
  6
Continuous
 62
     7
370
     5
100
AcDbSpline
210
0.0
220
0.0
230
1.0
 70
     8
 71
     3
 72
    10
 73
     6
 74
     0
 42
0.0000000001
 43
0.0000000001
 40
0.0
 40
0.0
 40
0.0
 40
0.0
 40
0.2805689268943341
 40
0.561039829653717
 40
1.0
 40
1.0
 40
1.0
 40
1.0
 10
4.856891082507749
 20
7.783100438626077
 30
0.0
 10
4.854385265759074
 20
7.78357832885743
 30
0.0
 10
4.849374507734721
 20
7.784533942356611
 30
0.0
 10
4.84085970985514
 20
7.783351407032736
 30
0.0
 10
4.836962468152696
 20
7.779282535933248
 30
0.0
 10
4.834584569914023
 20
7.776799918184702
 30
0.0
  0
LINE
  5
246
330
1F
100
AcDbEntity
  8
0
  6
Continuous
 62
     7
370
     5
100
AcDbLine
 10
4.148988063635821
 20
8.831466013176751
 30
0.0
 11
4.148988063635821
 21
8.750149616507998
 31
0.0
  0
LINE
  5
247
330
1F
100
AcDbEntity
  8
0
  6
Continuous
 62
     7
370
     5
100
AcDbLine
 10
4.148988063635821
 20
8.750149616507998
 30
0.0
 11
4.145945966664765
 21
8.747180436604452
 31
0.0
  0
LINE
  5
248
330
1F
100
AcDbEntity
  8
0
  6
Continuous
 62
     7
370
     5
100
AcDbLine
 10
4.148988063635821
 20
8.750149616507998
 30
0.0
 11
4.149872188530211
 21
8.749909330306207
 31
0.0
  0
LINE
  5
249
330
1F
100
AcDbEntity
  8
0
  6
Continuous
 62
     7
370
     5
100
AcDbLine
 10
5.958973517473203
 20
6.632592233526233
 30
0.0
 11
5.983241708479614
 21
6.656278731924276
 31
0.0
  0
LINE
  5
24A
330
1F
100
AcDbEntity
  8
0
  6
Continuous
 62
     7
370
     5
100
AcDbLine
 10
4.953723512549202
 20
8.995142981960659
 30
0.0
 11
4.977991703555612
 21
9.018829480358704
 31
0.0
  0
LINE
  5
24B
330
1F
100
AcDbEntity
  8
0
  6
Continuous
 62
     7
370
     5
100
AcDbLine
 10
5.983241708479614
 20
6.656278731924276
 30
0.0
 11
4.977991703555612
 21
9.018829480358704
 31
0.0
  0
LINE
  5
24C
330
1F
100
AcDbEntity
  8
0
  6
Continuous
 62
     7
370
     5
100
AcDbLine
 10
4.190497040108529
 20
8.848284261876456
 30
0.0
 11
4.190497040108529
 21
8.79066365006186
 31
0.0
  0
LINE
  5
24D
330
1F
100
AcDbEntity
  8
0
  6
Continuous
 62
     7
370
     5
100
AcDbLine
 10
4.190497040108529
 20
8.79066365006186
 30
0.0
 11
4.187454943137472
 21
8.787694470158314
 31
0.0
  0
SPLINE
  5
24E
330
1F
100
AcDbEntity
  8
0
  6
Continuous
 62
     7
370
     5
100
AcDbSpline
210
0.0
220
0.0
230
1.0
 70
     8
 71
     3
 72
     9
 73
     5
 74
     0
 42
0.0000000001
 43
0.0000000001
 40
0.0
 40
0.0
 40
0.0
 40
0.0
 40
0.5587318859443755
 40
0.9999999999999998
 40
0.9999999999999998
 40
0.9999999999999998
 40
0.9999999999999998
 10
4.186570459808786
 20
8.796988822495006
 30
0.0
 10
4.18449911807775
 20
8.79135387720464
 30
0.0
 10
4.180791898598866
 20
8.781268636980982
 30
0.0
 10
4.175740369923743
 20
8.775569509889866
 30
0.0
 10
4.173511291392165
 20
8.773054666826608
 30
0.0
  0
SPLINE
  5
24F
330
1F
100
AcDbEntity
  8
0
  6
Continuous
 62
     7
370
     5
100
AcDbSpline
210
0.0
220
0.0
230
1.0
 70
     8
 71
     3
 72
     9
 73
     5
 74
     0
 42
0.0000000001
 43
0.0000000001
 40
0.0
 40
0.0
 40
0.0
 40
0.0
 40
0.5607287059216061
 40
0.9999999999999998
 40
0.9999999999999998
 40
0.9999999999999998
 40
0.9999999999999998
 10
4.173511291392165
 20
8.773054666826608
 30
0.0
 10
4.171009958232992
 20
8.771044007604247
 30
0.0
 10
4.166549096620693
 20
8.767458210763232
 30
0.0
 10
4.163314500336134
 20
8.769893622696473
 30
0.0
 10
4.161893635040404
 20
8.770963429248
 30
0.0
  0
SPLINE
  5
250
330
1F
100
AcDbEntity
  8
0
  6
Continuous
 62
     7
370
     5
100
AcDbSpline
210
0.0
220
0.0
230
1.0
 70
     8
 71
     3
 72
     9
 73
     5
 74
     0
 42
0.0000000001
 43
0.0000000001
 40
0.0
 40
0.0
 40
0.0
 40
0.0
 40
0.0370855946588938
 40
0.9999999999999998
 40
0.9999999999999998
 40
0.9999999999999998
 40
0.9999999999999998
 10
4.181654397153416
 20
8.838135168366076
 30
0.0
 10
4.181681304028307
 20
8.838149690115688
 30
0.0
 10
4.182406838434361
 20
8.838541263979996
 30
0.0
 10
4.182868562241152
 20
8.837775787819195
 30
0.0
 10
4.183313162745993
 20
8.837038699797014
 30
0.0
  0
SPLINE
  5
251
330
1F
100
AcDbEntity
  8
0
  6
Continuous
 62
     7
370
     5
100
AcDbSpline
210
0.0
220
0.0
230
1.0
 70
     8
 71
     3
 72
    10
 73
     6
 74
     0
 42
0.0000000001
 43
0.0000000001
 40
0.0
 40
0.0
 40
0.0
 40
0.0
 40
0.037271358007332
 40
0.5183833576502133
 40
1.0
 40
1.0
 40
1.0
 40
1.0
 10
4.182135996340897
 20
8.829385433238467
 30
0.0
 10
4.182066033093562
 20
8.829483000636228
 30
0.0
 10
4.181092959264096
 20
8.830840002847949
 30
0.0
 10
4.17805154681734
 20
8.830266386065515
 30
0.0
 10
4.175142127175717
 20
8.827955114474882
 30
0.0
 10
4.173686654825699
 20
8.826798872918866
 30
0.0
  0
SPLINE
  5
252
330
1F
100
AcDbEntity
  8
0
  6
Continuous
 62
     7
370
     5
100
AcDbSpline
210
0.0
220
0.0
230
1.0
 70
     8
 71
     3
 72
    11
 73
     7
 74
     0
 42
0.0000000001
 43
0.0000000001
 40
0.0
 40
0.0
 40
0.0
 40
0.0
 40
0.2797776917944405
 40
0.559299145996672
 40
0.7797251152461734
 40
1.0
 40
1.0
 40
1.0
 40
1.0
 10
4.173686654825699
 20
8.826798872918866
 30
0.0
 10
4.171811340123659
 20
8.824568892693859
 30
0.0
 10
4.168062428247957
 20
8.820110974596682
 30
0.0
 10
4.163809653742338
 20
8.809825983699507
 30
0.0
 10
4.161245577266669
 20
8.799657848233342
 30
0.0
 10
4.160926934435231
 20
8.793944899833114
 30
0.0
 10
4.160767667639316
 20
8.791089404911712
 30
0.0
  0
SPLINE
  5
253
330
1F
100
AcDbEntity
  8
0
  6
Continuous
 62
     7
370
     5
100
AcDbSpline
210
0.0
220
0.0
230
1.0
 70
     8
 71
     3
 72
    10
 73
     6
 74
     0
 42
0.0000000001
 43
0.0000000001
 40
0.0
 40
0.0
 40
0.0
 40
0.0
 40
0.4085696866890818
 40
0.8176244452191403
 40
0.9999999999999998
 40
0.9999999999999998
 40
0.9999999999999998
 40
0.9999999999999998
 10
4.160767667639316
 20
8.791089404911712
 30
0.0
 10
4.161042860513481
 20
8.787965594318304
 30
0.0
 10
4.161593572982845
 20
8.781714264406632
 30
0.0
 10
4.164504842516295
 20
8.777410133995509
 30
0.0
 10
4.166918327345078
 20
8.777567786612195
 30
0.0
 10
4.167662558110217
 20
8.777616400933753
 30
0.0
  0
LINE
  5
254
330
1F
100
AcDbEntity
  8
0
  6
Continuous
 62
     7
370
     5
100
AcDbLine
 10
4.160767667639316
 20
8.791089404911712
 30
0.0
 11
4.161651792533705
 21
8.790849118709921
 31
0.0
  0
LINE
  5
255
330
1F
100
AcDbEntity
  8
0
  6
Continuous
 62
     7
370
     5
100
AcDbLine
 10
4.173686654825699
 20
8.826798872918866
 30
0.0
 11
4.174570779720089
 21
8.826558586717075
 31
0.0
  0
SPLINE
  5
256
330
1F
100
AcDbEntity
  8
0
  6
Continuous
 62
     7
370
     5
100
AcDbSpline
210
0.0
220
0.0
230
1.0
 70
     8
 71
     3
 72
    11
 73
     7
 74
     0
 42
0.0000000001
 43
0.0000000001
 40
0.0
 40
0.0
 40
0.0
 40
0.0
 40
0.2797776917944405
 40
0.559299145996672
 40
0.7797251152461734
 40
1.0
 40
1.0
 40
1.0
 40
1.0
 10
4.174570779720089
 20
8.826558586717075
 30
0.0
 10
4.172695465018045
 20
8.824328606492068
 30
0.0
 10
4.168946553142347
 20
8.819870688394891
 30
0.0
 10
4.164693778636728
 20
8.809585697497716
 30
0.0
 10
4.162129702161058
 20
8.799417562031552
 30
0.0
 10
4.16181105932962
 20
8.793704613631323
 30
0.0
 10
4.161651792533705
 20
8.790849118709921
 30
0.0
  0
SPLINE
  5
257
330
1F
100
AcDbEntity
  8
0
  6
Continuous
 62
     7
370
     5
100
AcDbSpline
210
0.0
220
0.0
230
1.0
 70
     8
 71
     3
 72
    11
 73
     7
 74
     0
 42
0.0000000001
 43
0.0000000001
 40
0.0
 40
0.0
 40
0.0
 40
0.0
 40
0.2797733415149235
 40
0.5593806261877702
 40
0.7796089262129547
 40
1.0
 40
1.0
 40
1.0
 40
1.0
 10
4.174535734412527
 20
8.780163183480103
 30
0.0
 10
4.176408067953007
 20
8.782413512042468
 30
0.0
 10
4.180151623727954
 20
8.786912833505802
 30
0.0
 10
4.184527568072691
 20
8.797051531907499
 30
0.0
 10
4.187066600036218
 20
8.807305501106041
 30
0.0
 10
4.187325224633791
 20
8.812983962967651
 30
0.0
 10
4.187454584703176
 20
8.815824242768128
 30
0.0
  0
SPLINE
  5
258
330
1F
100
AcDbEntity
  8
0
  6
Continuous
 62
     7
370
     5
100
AcDbSpline
210
0.0
220
0.0
230
1.0
 70
     8
 71
     3
 72
    11
 73
     7
 74
     0
 42
0.0000000001
 43
0.0000000001
 40
0.0
 40
0.0
 40
0.0
 40
0.0
 40
0.2794060704095789
 40
0.559143863953226
 40
0.7795651755551
 40
1.0
 40
1.0
 40
1.0
 40
1.0
 10
4.161651792533705
 20
8.790849118709921
 30
0.0
 10
4.161918511904375
 20
8.787682669907981
 30
0.0
 10
4.162452267306645
 20
8.781346012957293
 30
0.0
 10
4.165889238514414
 20
8.777034797857705
 30
0.0
 10
4.17012094853274
 20
8.776644729783566
 30
0.0
 10
4.173064109048636
 20
8.778990341615854
 30
0.0
 10
4.174535734412527
 20
8.780163183480103
 30
0.0
  0
SPLINE
  5
259
330
1F
100
AcDbEntity
  8
0
  6
Continuous
 62
     7
370
     5
100
AcDbSpline
210
0.0
220
0.0
230
1.0
 70
     8
 71
     3
 72
    11
 73
     7
 74
     0
 42
0.0000000001
 43
0.0000000001
 40
0.0
 40
0.0
 40
0.0
 40
0.0
 40
0.279661774693571
 40
0.559212989445549
 40
0.779490968945067
 40
1.0
 40
1.0
 40
1.0
 40
1.0
 10
4.187454584703176
 20
8.815824242768128
 30
0.0
 10
4.187244991662375
 20
8.819102077469869
 30
0.0
 10
4.186825888440125
 20
8.825656451032275
 30
0.0
 10
4.183291356319158
 20
8.829867468853979
 30
0.0
 10
4.179032311585737
 20
8.830264926123716
 30
0.0
 10
4.17605847661651
 20
8.827794464841083
 30
0.0
 10
4.174570779720093
 20
8.826558586717075
 30
0.0
  0
LINE
  5
25A
330
1F
100
AcDbEntity
  8
0
  6
Continuous
 62
     7
370
     5
100
AcDbLine
 10
4.173511291392165
 20
8.773054666826608
 30
0.0
 11
4.174395416286555
 21
8.772814380624815
 31
0.0
  0
LINE
  5
25B
330
1F
100
AcDbEntity
  8
0
  6
Continuous
 62
     7
370
     5
100
AcDbLine
 10
4.186570459808786
 20
8.834689416368155
 30
0.0
 11
4.187454584703176
 21
8.834449130166364
 31
0.0
  0
LINE
  5
25C
330
1F
100
AcDbEntity
  8
0
  6
Continuous
 62
     7
370
     5
100
AcDbLine
 10
4.207324948045142
 20
8.888404600760113
 30
0.0
 11
4.207324948045142
 21
8.865812354627397
 31
0.0
  0
LINE
  5
25D
330
1F
100
AcDbEntity
  8
0
  6
Continuous
 62
     7
370
     5
100
AcDbLine
 10
4.21293425069068
 20
8.87018366724912
 30
0.0
 11
4.21293425069068
 21
8.864075357907875
 31
0.0
  0
LINE
  5
25E
330
1F
100
AcDbEntity
  8
0
  6
Continuous
 62
     7
370
     5
100
AcDbLine
 10
4.21293425069068
 20
8.864075357907875
 30
0.0
 11
4.207324948045142
 21
8.858600506564709
 31
0.0
  0
LINE
  5
25F
330
1F
100
AcDbEntity
  8
0
  6
Continuous
 62
     7
370
     5
100
AcDbLine
 10
4.207324948045142
 20
8.858600506564709
 30
0.0
 11
4.207324948045142
 21
8.80708820409136
 31
0.0
  0
LINE
  5
260
330
1F
100
AcDbEntity
  8
0
  6
Continuous
 62
     7
370
     5
100
AcDbLine
 10
4.207324948045142
 20
8.80708820409136
 30
0.0
 11
4.204282851074082
 21
8.804119024187812
 31
0.0
  0
LINE
  5
261
330
1F
100
AcDbEntity
  8
0
  6
Continuous
 62
     7
370
     5
100
AcDbLine
 10
4.20339850464113
 20
8.854768177431708
 30
0.0
 11
4.198673548428544
 21
8.850156475317994
 31
0.0
  0
LINE
  5
262
330
1F
100
AcDbEntity
  8
0
  6
Continuous
 62
     7
370
     5
100
AcDbLine
 10
4.190497040108529
 20
8.79066365006186
 30
0.0
 11
4.191381165002919
 21
8.790423363860069
 31
0.0
  0
LINE
  5
263
330
1F
100
AcDbEntity
  8
0
  6
Continuous
 62
     7
370
     5
100
AcDbLine
 10
4.186570459808786
 20
8.796988822495006
 30
0.0
 11
4.187454584703176
 21
8.796748536293215
 31
0.0
  0
LINE
  5
264
330
1F
100
AcDbEntity
  8
0
  6
Continuous
 62
     7
370
     5
100
AcDbLine
 10
4.207324948045142
 20
8.865812354627397
 30
0.0
 11
4.208209072939532
 21
8.865572068425604
 31
0.0
  0
LINE
  5
265
330
1F
100
AcDbEntity
  8
0
  6
Continuous
 62
     7
370
     5
100
AcDbLine
 10
4.20339850464113
 20
8.854768177431708
 30
0.0
 11
4.204282629535519
 21
8.854527891229917
 31
0.0
  0
LINE
  5
266
330
1F
100
AcDbEntity
  8
0
  6
Continuous
 62
     7
370
     5
100
AcDbLine
 10
4.207324948045142
 20
8.858600506564709
 30
0.0
 11
4.208209072939532
 21
8.858360220362918
 31
0.0
  0
LINE
  5
267
330
1F
100
AcDbEntity
  8
0
  6
Continuous
 62
     7
370
     5
100
AcDbLine
 10
4.21293425069068
 20
8.864075357907875
 30
0.0
 11
4.21381837558507
 21
8.863835071706084
 31
0.0
  0
LINE
  5
268
330
1F
100
AcDbEntity
  8
0
  6
Continuous
 62
     7
370
     5
100
AcDbLine
 10
4.207324948045142
 20
8.80708820409136
 30
0.0
 11
4.208209072939532
 21
8.806847917889569
 31
0.0
  0
SPLINE
  5
269
330
1F
100
AcDbEntity
  8
0
  6
Continuous
 62
     7
370
     5
100
AcDbSpline
210
0.0
220
0.0
230
1.0
 70
     8
 71
     3
 72
    10
 73
     6
 74
     0
 42
0.0000000001
 43
0.0000000001
 40
0.0
 40
0.0
 40
0.0
 40
0.0
 40
0.2808702129144234
 40
0.5613322212716979
 40
1.0
 40
1.0
 40
1.0
 40
1.0
 10
4.249955785046958
 20
8.863877214012823
 30
0.0
 10
4.24906094824982
 20
8.860350826659876
 30
0.0
 10
4.247272575172469
 20
8.853303177052051
 30
0.0
 10
4.242254263980125
 20
8.841561852472633
 30
0.0
 10
4.23786494779096
 20
8.836400764762384
 30
0.0
 10
4.235187473408146
 20
8.83325251124496
 30
0.0
  0
SPLINE
  5
26A
330
1F
100
AcDbEntity
  8
0
  6
Continuous
 62
     7
370
     5
100
AcDbSpline
210
0.0
220
0.0
230
1.0
 70
     8
 71
     3
 72
     9
 73
     5
 74
     0
 42
0.0000000001
 43
0.0000000001
 40
0.0
 40
0.0
 40
0.0
 40
0.0
 40
0.5664223391030753
 40
1.0
 40
1.0
 40
1.0
 40
1.0
 10
4.235187473408141
 20
8.83325251124496
 30
0.0
 10
4.232706220184202
 20
8.831130198401973
 30
0.0
 10
4.22832564926982
 20
8.827383324918217
 30
0.0
 10
4.225267549577613
 20
8.830058697695445
 30
0.0
 10
4.22394162586627
 20
8.831218679566221
 30
0.0
  0
LINE
  5
26B
330
1F
100
AcDbEntity
  8
0
  6
Continuous
 62
     7
370
     5
100
AcDbLine
 10
4.243356863150058
 20
8.898281476874387
 30
0.0
 11
4.244979351373486
 21
8.897220253108086
 31
0.0
  0
SPLINE
  5
26C
330
1F
100
AcDbEntity
  8
0
  6
Continuous
 62
     7
370
     5
100
AcDbSpline
210
0.0
220
0.0
230
1.0
 70
     8
 71
     3
 72
     9
 73
     5
 74
     0
 42
0.0000000001
 43
0.0000000001
 40
0.0
 40
0.0
 40
0.0
 40
0.0
 40
0.5589006713150879
 40
1.0
 40
1.0
 40
1.0
 40
1.0
 10
4.248159028555861
 20
8.895139924715874
 30
0.0
 10
4.249297826924007
 20
8.892718261913325
 30
0.0
 10
4.251335395362561
 20
8.888385358184917
 30
0.0
 10
4.251545824248264
 20
8.881287402613594
 30
0.0
 10
4.251638644288483
 20
8.878156499176048
 30
0.0
  0
LINE
  5
26D
330
1F
100
AcDbEntity
  8
0
  6
Continuous
 62
     7
370
     5
100
AcDbLine
 10
4.251638644288483
 20
8.878156499176048
 30
0.0
 11
4.22303113234838
 21
8.850234690518686
 31
0.0
  0
SPLINE
  5
26E
330
1F
100
AcDbEntity
  8
0
  6
Continuous
 62
     7
370
     5
100
AcDbSpline
210
0.0
220
0.0
230
1.0
 70
     8
 71
     3
 72
    10
 73
     6
 74
     0
 42
0.0000000001
 43
0.0000000001
 40
0.0
 40
0.0
 40
0.0
 40
0.0
 40
0.4000611156821092
 40
0.7993132773203274
 40
1.0
 40
1.0
 40
1.0
 40
1.0
 10
4.22303113234838
 20
8.850234690518686
 30
0.0
 10
4.223239486626331
 20
8.847286309202926
 30
0.0
 10
4.22365577387401
 20
8.84139550842298
 30
0.0
 10
4.22634386786365
 20
8.837182459398011
 30
0.0
 10
4.228652356671089
 20
8.837305854964268
 30
0.0
 10
4.229424573750565
 20
8.837347132255057
 30
0.0
  0
SPLINE
  5
26F
330
1F
100
AcDbEntity
  8
0
  6
Continuous
 62
     7
370
     5
100
AcDbSpline
210
0.0
220
0.0
230
1.0
 70
     8
 71
     3
 72
     9
 73
     5
 74
     0
 42
0.0000000001
 43
0.0000000001
 40
0.0
 40
0.0
 40
0.0
 40
0.0
 40
0.1899592758333676
 40
1.0
 40
1.0
 40
1.0
 40
1.0
 10
4.24376741345229
 20
8.889394006125018
 30
0.0
 10
4.243366899565405
 20
8.889770049835142
 30
0.0
 10
4.241258479825822
 20
8.891749651560152
 30
0.0
 10
4.238069057438459
 20
8.889189921477745
 30
0.0
 10
4.235485495418129
 20
8.887116435868117
 30
0.0
  0
SPLINE
  5
270
330
1F
100
AcDbEntity
  8
0
  6
Continuous
 62
     7
370
     5
100
AcDbSpline
210
0.0
220
0.0
230
1.0
 70
     8
 71
     3
 72
     9
 73
     5
 74
     0
 42
0.0000000001
 43
0.0000000001
 40
0.0
 40
0.0
 40
0.0
 40
0.0
 40
0.5595081349081569
 40
0.9999999999999998
 40
0.9999999999999998
 40
0.9999999999999998
 40
0.9999999999999998
 10
4.235485495418129
 20
8.887116435868117
 30
0.0
 10
4.2337899131025
 20
8.885185425873313
 30
0.0
 10
4.230759425769358
 20
8.881734162389681
 30
0.0
 10
4.228320960534677
 20
8.876066456897939
 30
0.0
 10
4.227246836435493
 20
8.873569878735091
 30
0.0
  0
SPLINE
  5
271
330
1F
100
AcDbEntity
  8
0
  6
Continuous
 62
     7
370
     5
100
AcDbSpline
210
0.0
220
0.0
230
1.0
 70
     8
 71
     3
 72
     9
 73
     5
 74
     0
 42
0.0000000001
 43
0.0000000001
 40
0.0
 40
0.0
 40
0.0
 40
0.0
 40
0.5588117179805418
 40
1.0
 40
1.0
 40
1.0
 40
1.0
 10
4.227246836435488
 20
8.873569878735093
 30
0.0
 10
4.226292958685447
 20
8.870654371530202
 30
0.0
 10
4.224585983474752
 20
8.865437037836079
 30
0.0
 10
4.223792935209598
 20
8.860171449045965
 30
0.0
 10
4.223443051607939
 20
8.857848332973834
 30
0.0
  0
SPLINE
  5
272
330
1F
100
AcDbEntity
  8
0
  6
Continuous
 62
     7
370
     5
100
AcDbSpline
210
0.0
220
0.0
230
1.0
 70
     8
 71
     3
 72
     9
 73
     5
 74
     0
 42
0.0000000001
 43
0.0000000001
 40
0.0
 40
0.0
 40
0.0
 40
0.0
 40
0.5588117179805418
 40
1.0
 40
1.0
 40
1.0
 40
1.0
 10
4.228130961329878
 20
8.873329592533302
 30
0.0
 10
4.227177083579836
 20
8.870414085328413
 30
0.0
 10
4.225470108369133
 20
8.865196751634291
 30
0.0
 10
4.224677060103987
 20
8.859931162844175
 30
0.0
 10
4.224327176502328
 20
8.857608046772043
 30
0.0
  0
SPLINE
  5
273
330
1F
100
AcDbEntity
  8
0
  6
Continuous
 62
     7
370
     5
100
AcDbSpline
210
0.0
220
0.0
230
1.0
 70
     8
 71
     3
 72
     9
 73
     5
 74
     0
 42
0.0000000001
 43
0.0000000001
 40
0.0
 40
0.0
 40
0.0
 40
0.0
 40
0.5595081349081569
 40
0.9999999999999998
 40
0.9999999999999998
 40
0.9999999999999998
 40
0.9999999999999998
 10
4.236369620312519
 20
8.886876149666326
 30
0.0
 10
4.234674037996894
 20
8.884945139671522
 30
0.0
 10
4.231643550663751
 20
8.88149387618789
 30
0.0
 10
4.229205085429066
 20
8.875826170696148
 30
0.0
 10
4.228130961329882
 20
8.8733295925333
 30
0.0
  0
SPLINE
  5
274
330
1F
100
AcDbEntity
  8
0
  6
Continuous
 62
     7
370
     5
100
AcDbSpline
210
0.0
220
0.0
230
1.0
 70
     8
 71
     3
 72
    10
 73
     6
 74
     0
 42
0.0000000001
 43
0.0000000001
 40
0.0
 40
0.0
 40
0.0
 40
0.0
 40
0.2813110869583656
 40
0.5615367832759591
 40
1.0
 40
1.0
 40
1.0
 40
1.0
 10
4.248596188883134
 20
8.881295346856676
 30
0.0
 10
4.248115054981329
 20
8.883591572197619
 30
0.0
 10
4.24715464355045
 20
8.888175163287371
 30
0.0
 10
4.242883537112914
 20
8.891412319152799
 30
0.0
 10
4.238837846261644
 20
8.888594975923897
 30
0.0
 10
4.236369620312519
 20
8.886876149666326
 30
0.0
  0
LINE
  5
275
330
1F
100
AcDbEntity
  8
0
  6
Continuous
 62
     7
370
     5
100
AcDbLine
 10
4.224327176502328
 20
8.857608046772043
 30
0.0
 11
4.248596188883134
 21
8.881295346856676
 31
0.0
  0
LINE
  5
276
330
1F
100
AcDbEntity
  8
0
  6
Continuous
 62
     7
370
     5
100
AcDbLine
 10
4.223443051607939
 20
8.857848332973834
 30
0.0
 11
4.224327176502328
 21
8.857608046772043
 31
0.0
  0
LINE
  5
277
330
1F
100
AcDbEntity
  8
0
  6
Continuous
 62
     7
370
     5
100
AcDbLine
 10
4.227246836435488
 20
8.873569878735093
 30
0.0
 11
4.228130961329878
 21
8.873329592533302
 31
0.0
  0
LINE
  5
278
330
1F
100
AcDbEntity
  8
0
  6
Continuous
 62
     7
370
     5
100
AcDbLine
 10
4.235485495418129
 20
8.887116435868117
 30
0.0
 11
4.236369620312519
 21
8.886876149666326
 31
0.0
  0
LINE
  5
279
330
1F
100
AcDbEntity
  8
0
  6
Continuous
 62
     7
370
     5
100
AcDbLine
 10
4.235187473408141
 20
8.83325251124496
 30
0.0
 11
4.23607159830253
 21
8.833012225043169
 31
0.0
  0
LINE
  5
27A
330
1F
100
AcDbEntity
  8
0
  6
Continuous
 62
     7
370
     5
100
AcDbLine
 10
4.22303113234838
 20
8.850234690518686
 30
0.0
 11
4.22391525724277
 21
8.849994404316895
 31
0.0
  0
LINE
  5
27B
330
1F
100
AcDbEntity
  8
0
  6
Continuous
 62
     7
370
     5
100
AcDbLine
 10
4.251638644288483
 20
8.878156499176048
 30
0.0
 11
4.252522769182872
 21
8.877916212974257
 31
0.0
  0
LINE
  5
27C
330
1F
100
AcDbEntity
  8
0
  6
Continuous
 62
     7
370
     5
100
AcDbLine
 10
4.248159028555861
 20
8.895139924715874
 30
0.0
 11
4.24904315345025
 21
8.894899638514083
 31
0.0
  0
LINE
  5
27D
330
1F
100
AcDbEntity
  8
0
  6
Continuous
 62
     7
370
     5
100
AcDbLine
 10
4.281368016757697
 20
8.958612413619837
 30
0.0
 11
4.281368016757697
 21
8.887598477445754
 31
0.0
  0
LINE
  5
27E
330
1F
100
AcDbEntity
  8
0
  6
Continuous
 62
     7
370
     5
100
AcDbLine
 10
4.29819592469431
 20
8.902919492753811
 30
0.0
 11
4.29819592469431
 21
8.895781063079517
 31
0.0
  0
LINE
  5
27F
330
1F
100
AcDbEntity
  8
0
  6
Continuous
 62
     7
370
     5
100
AcDbLine
 10
4.29819592469431
 20
8.895781063079517
 30
0.0
 11
4.278325919786641
 21
8.876387329146471
 31
0.0
  0
LINE
  5
280
330
1F
100
AcDbEntity
  8
0
  6
Continuous
 62
     7
370
     5
100
AcDbLine
 10
4.281368016757697
 20
8.887598477445754
 30
0.0
 11
4.282252141652087
 21
8.887358191243963
 31
0.0
  0
SPLINE
  5
281
330
1F
100
AcDbEntity
  8
0
  6
Continuous
 62
     7
370
     5
100
AcDbSpline
210
0.0
220
0.0
230
1.0
 70
     8
 71
     3
 72
    11
 73
     7
 74
     0
 42
0.0000000001
 43
0.0000000001
 40
0.0
 40
0.0
 40
0.0
 40
0.0
 40
0.2798598077628851
 40
0.5598502933197653
 40
0.7798960206918695
 40
1.0
 40
1.0
 40
1.0
 40
1.0
 10
4.305751063283804
 20
8.986605165679588
 30
0.0
 10
4.306270644741474
 20
8.987014944876804
 30
0.0
 10
4.307310050270295
 20
8.987834694613608
 30
0.0
 10
4.308507393928191
 20
8.987381564369437
 30
0.0
 10
4.309285513758528
 20
8.986089854196606
 30
0.0
 10
4.309371612042009
 20
8.984674877423309
 30
0.0
 10
4.309414666881121
 20
8.983967295403591
 30
0.0
  0
SPLINE
  5
282
330
1F
100
AcDbEntity
  8
0
  6
Continuous
 62
     7
370
     5
100
AcDbSpline
210
0.0
220
0.0
230
1.0
 70
     8
 71
     3
 72
    11
 73
     7
 74
     0
 42
0.0000000001
 43
0.0000000001
 40
0.0
 40
0.0
 40
0.0
 40
0.0
 40
0.2791505894820774
 40
0.5588596468636719
 40
0.7793629288757697
 40
1.0
 40
1.0
 40
1.0
 40
1.0
 10
4.309414666881116
 20
8.983967295403591
 30
0.0
 10
4.30933918523715
 20
8.982946001197989
 30
0.0
 10
4.309188070940837
 20
8.98090136958841
 30
0.0
 10
4.308141115716935
 20
8.977924793716239
 30
0.0
 10
4.306969642892847
 20
8.975593507973361
 30
0.0
 10
4.306157338605404
 20
8.974692735777219
 30
0.0
 10
4.305751063283804
 20
8.974242213085984
 30
0.0
  0
LINE
  5
283
330
1F
100
AcDbEntity
  8
0
  6
Continuous
 62
     7
370
     5
100
AcDbLine
 10
4.305751063283804
 20
8.974242213085984
 30
0.0
 11
4.306635188178193
 21
8.974001926884193
 31
0.0
  0
LINE
  5
284
330
1F
100
AcDbEntity
  8
0
  6
Continuous
 62
     7
370
     5
100
AcDbLine
 10
4.309414666881116
 20
8.983967295403591
 30
0.0
 11
4.310298791775506
 21
8.9837270092018
 31
0.0
  0
LINE
  5
285
330
1F
100
AcDbEntity
  8
0
  6
Continuous
 62
     7
370
     5
100
AcDbLine
 10
4.29819592469431
 20
8.895781063079517
 30
0.0
 11
4.2990800495887
 21
8.895540776877727
 31
0.0
  0
LINE
  5
286
330
1F
100
AcDbEntity
  8
0
  6
Continuous
 62
     7
370
     5
100
AcDbLine
 10
4.307731807639591
 20
8.96270898898471
 30
0.0
 11
4.307731807639591
 21
8.905088377170114
 31
0.0
  0
LINE
  5
287
330
1F
100
AcDbEntity
  8
0
  6
Continuous
 62
     7
370
     5
100
AcDbLine
 10
4.307731807639591
 20
8.905088377170114
 30
0.0
 11
4.30468971066853
 21
8.902119197266568
 31
0.0
  0
LINE
  5
288
330
1F
100
AcDbEntity
  8
0
  6
Continuous
 62
     7
370
     5
100
AcDbLine
 10
4.307731807639591
 20
8.905088377170114
 30
0.0
 11
4.308615932533981
 21
8.904848090968323
 31
0.0
  0
LINE
  5
289
330
1F
100
AcDbEntity
  8
0
  6
Continuous
 62
     7
370
     5
100
AcDbLine
 10
4.320633272172192
 20
8.975301213881207
 30
0.0
 11
4.320633272172192
 21
8.965812390046959
 31
0.0
  0
SPLINE
  5
28A
330
1F
100
AcDbEntity
  8
0
  6
Continuous
 62
     7
370
     5
100
AcDbSpline
210
0.0
220
0.0
230
1.0
 70
     8
 71
     3
 72
    11
 73
     7
 74
     0
 42
0.0000000001
 43
0.0000000001
 40
0.0
 40
0.0
 40
0.0
 40
0.0
 40
0.0286337964645789
 40
0.2518548901744323
 40
0.4749602360756253
 40
1.0
 40
1.0
 40
1.0
 40
1.0
 10
4.336470328795851
 20
8.991766912329541
 30
0.0
 10
4.336651119459197
 20
8.991894326655263
 30
0.0
 10
4.338241303726903
 20
8.993015027539295
 30
0.0
 10
4.340841993002031
 20
8.992104576897142
 30
0.0
 10
4.34470061698216
 20
8.986714201915541
 30
0.0
 10
4.344731599097949
 20
8.977605098388737
 30
0.0
 10
4.344753341995868
 20
8.971212432711366
 30
0.0
  0
LINE
  5
28B
330
1F
100
AcDbEntity
  8
0
  6
Continuous
 62
     7
370
     5
100
AcDbLine
 10
4.344753341995868
 20
8.971212432711366
 30
0.0
 11
4.344753341995868
 21
8.941222529649444
 31
0.0
  0
LINE
  5
28C
330
1F
100
AcDbEntity
  8
0
  6
Continuous
 62
     7
370
     5
100
AcDbLine
 10
4.344753341995868
 20
8.941222529649444
 30
0.0
 11
4.341711245024812
 21
8.938253349745897
 31
0.0
  0
SPLINE
  5
28D
330
1F
100
AcDbEntity
  8
0
  6
Continuous
 62
     7
370
     5
100
AcDbSpline
210
0.0
220
0.0
230
1.0
 70
     8
 71
     3
 72
     9
 73
     5
 74
     0
 42
0.0000000001
 43
0.0000000001
 40
0.0
 40
0.0
 40
0.0
 40
0.0
 40
0.1970535964025655
 40
1.0
 40
1.0
 40
1.0
 40
1.0
 10
4.337785622995194
 20
8.983291062790653
 30
0.0
 10
4.337506932708217
 20
8.983572081786125
 30
0.0
 10
4.336092645975732
 20
8.984998186158755
 30
0.0
 10
4.333886373064848
 20
8.983018907220701
 30
0.0
 10
4.332114854165698
 20
8.981429652315675
 30
0.0
  0
SPLINE
  5
28E
330
1F
100
AcDbEntity
  8
0
  6
Continuous
 62
     7
370
     5
100
AcDbSpline
210
0.0
220
0.0
230
1.0
 70
     8
 71
     3
 72
    11
 73
     7
 74
     0
 42
0.0000000001
 43
0.0000000001
 40
0.0
 40
0.0
 40
0.0
 40
0.0
 40
0.2795575443025964
 40
0.5593323503991398
 40
0.7796775571736598
 40
0.9999999999999998
 40
0.9999999999999998
 40
0.9999999999999998
 40
0.9999999999999998
 10
4.332114854165698
 20
8.981429652315675
 30
0.0
 10
4.33072968444967
 20
8.979807401420693
 30
0.0
 10
4.327958268514877
 20
8.976561638877278
 30
0.0
 10
4.324701821540737
 20
8.96927328147419
 30
0.0
 10
4.322337504425044
 20
8.962003451721772
 30
0.0
 10
4.321604449267882
 20
8.957509796251917
 30
0.0
 10
4.321237940623328
 20
8.955263084583307
 30
0.0
  0
SPLINE
  5
28F
330
1F
100
AcDbEntity
  8
0
  6
Continuous
 62
     7
370
     5
100
AcDbSpline
210
0.0
220
0.0
230
1.0
 70
     8
 71
     3
 72
     9
 73
     5
 74
     0
 42
0.0000000001
 43
0.0000000001
 40
0.0
 40
0.0
 40
0.0
 40
0.0
 40
0.5596491649678775
 40
1.0
 40
1.0
 40
1.0
 40
1.0
 10
4.321237940623328
 20
8.955263084583307
 30
0.0
 10
4.321019164377626
 20
8.952122255600132
 30
0.0
 10
4.320628247604422
 20
8.946510116460501
 30
0.0
 10
4.320631736037691
 20
8.941235869779847
 30
0.0
 10
4.320633272172192
 20
8.938913350849857
 30
0.0
  0
LINE
  5
290
330
1F
100
AcDbEntity
  8
0
  6
Continuous
 62
     7
370
     5
100
AcDbLine
 10
4.320633272172192
 20
8.938913350849857
 30
0.0
 11
4.320633272172192
 21
8.917680602066614
 31
0.0
  0
LINE
  5
291
330
1F
100
AcDbEntity
  8
0
  6
Continuous
 62
     7
370
     5
100
AcDbLine
 10
4.320633272172192
 20
8.917680602066614
 30
0.0
 11
4.317591175201131
 21
8.914711422163065
 31
0.0
  0
LINE
  5
292
330
1F
100
AcDbEntity
  8
0
  6
Continuous
 62
     7
370
     5
100
AcDbLine
 10
4.320633272172192
 20
8.965812390046959
 30
0.0
 11
4.321517397066581
 21
8.965572103845168
 31
0.0
  0
LINE
  5
293
330
1F
100
AcDbEntity
  8
0
  6
Continuous
 62
     7
370
     5
100
AcDbLine
 10
4.321237940623328
 20
8.955263084583307
 30
0.0
 11
4.322122065517718
 21
8.955022798381516
 31
0.0
  0
LINE
  5
294
330
1F
100
AcDbEntity
  8
0
  6
Continuous
 62
     7
370
     5
100
AcDbLine
 10
4.332114854165698
 20
8.981429652315675
 30
0.0
 11
4.332998979060088
 21
8.981189366113884
 31
0.0
  0
LINE
  5
295
330
1F
100
AcDbEntity
  8
0
  6
Continuous
 62
     7
370
     5
100
AcDbLine
 10
4.320633272172192
 20
8.938913350849857
 30
0.0
 11
4.321517397066581
 21
8.938673064648066
 31
0.0
  0
LINE
  5
296
330
1F
100
AcDbEntity
  8
0
  6
Continuous
 62
     7
370
     5
100
AcDbLine
 10
4.344753341995868
 20
8.971212432711366
 30
0.0
 11
4.345637466890257
 21
8.970972146509575
 31
0.0
  0
LINE
  5
297
330
1F
100
AcDbEntity
  8
0
  6
Continuous
 62
     7
370
     5
100
AcDbLine
 10
4.320633272172192
 20
8.917680602066614
 30
0.0
 11
4.321517397066581
 21
8.917440315864821
 31
0.0
  0
SPLINE
  5
298
330
1F
100
AcDbEntity
  8
0
  6
Continuous
 62
     7
370
     5
100
AcDbSpline
210
0.0
220
0.0
230
1.0
 70
     8
 71
     3
 72
    10
 73
     6
 74
     0
 42
0.0000000001
 43
0.0000000001
 40
0.0
 40
0.0
 40
0.0
 40
0.0
 40
0.2808702129144234
 40
0.5613322212716979
 40
1.0
 40
1.0
 40
1.0
 40
1.0
 10
4.38345759869794
 20
8.994179076823474
 30
0.0
 10
4.382562761900803
 20
8.990652689470527
 30
0.0
 10
4.380774388823451
 20
8.983605039862704
 30
0.0
 10
4.375756077631108
 20
8.971863715283285
 30
0.0
 10
4.371366761441942
 20
8.966702627573036
 30
0.0
 10
4.368689287059128
 20
8.963554374055613
 30
0.0
  0
SPLINE
  5
299
330
1F
100
AcDbEntity
  8
0
  6
Continuous
 62
     7
370
     5
100
AcDbSpline
210
0.0
220
0.0
230
1.0
 70
     8
 71
     3
 72
     9
 73
     5
 74
     0
 42
0.0000000001
 43
0.0000000001
 40
0.0
 40
0.0
 40
0.0
 40
0.0
 40
0.5664223391030753
 40
1.0
 40
1.0
 40
1.0
 40
1.0
 10
4.368689287059123
 20
8.963554374055613
 30
0.0
 10
4.366208033835189
 20
8.961432061212624
 30
0.0
 10
4.361827462920808
 20
8.95768518772887
 30
0.0
 10
4.358769363228595
 20
8.960360560506098
 30
0.0
 10
4.357443439517257
 20
8.961520542376872
 30
0.0
  0
LINE
  5
29A
330
1F
100
AcDbEntity
  8
0
  6
Continuous
 62
     7
370
     5
100
AcDbLine
 10
4.37685867680104
 20
9.02858333968504
 30
0.0
 11
4.378481165024468
 21
9.027522115918738
 31
0.0
  0
SPLINE
  5
29B
330
1F
100
AcDbEntity
  8
0
  6
Continuous
 62
     7
370
     5
100
AcDbSpline
210
0.0
220
0.0
230
1.0
 70
     8
 71
     3
 72
     9
 73
     5
 74
     0
 42
0.0000000001
 43
0.0000000001
 40
0.0
 40
0.0
 40
0.0
 40
0.0
 40
0.5589006713150879
 40
1.0
 40
1.0
 40
1.0
 40
1.0
 10
4.381660842206843
 20
9.025441787526526
 30
0.0
 10
4.382799640574995
 20
9.023020124723977
 30
0.0
 10
4.384837209013543
 20
9.018687220995568
 30
0.0
 10
4.385047637899246
 20
9.011589265424246
 30
0.0
 10
4.38514045793947
 20
9.008458361986701
 30
0.0
  0
LINE
  5
29C
330
1F
100
AcDbEntity
  8
0
  6
Continuous
 62
     7
370
     5
100
AcDbLine
 10
4.38514045793947
 20
9.008458361986701
 30
0.0
 11
4.356532945999362
 21
8.980536553329336
 31
0.0
  0
SPLINE
  5
29D
330
1F
100
AcDbEntity
  8
0
  6
Continuous
 62
     7
370
     5
100
AcDbSpline
210
0.0
220
0.0
230
1.0
 70
     8
 71
     3
 72
    10
 73
     6
 74
     0
 42
0.0000000001
 43
0.0000000001
 40
0.0
 40
0.0
 40
0.0
 40
0.0
 40
0.4000611156821092
 40
0.7993132773203274
 40
1.0
 40
1.0
 40
1.0
 40
1.0
 10
4.356532945999362
 20
8.980536553329336
 30
0.0
 10
4.356741300277314
 20
8.977588172013581
 30
0.0
 10
4.357157587524993
 20
8.971697371233631
 30
0.0
 10
4.359845681514636
 20
8.967484322208663
 30
0.0
 10
4.362154170322072
 20
8.967607717774921
 30
0.0
 10
4.362926387401548
 20
8.96764899506571
 30
0.0
  0
SPLINE
  5
29E
330
1F
100
AcDbEntity
  8
0
  6
Continuous
 62
     7
370
     5
100
AcDbSpline
210
0.0
220
0.0
230
1.0
 70
     8
 71
     3
 72
     9
 73
     5
 74
     0
 42
0.0000000001
 43
0.0000000001
 40
0.0
 40
0.0
 40
0.0
 40
0.0
 40
0.1899592758333676
 40
1.0
 40
1.0
 40
1.0
 40
1.0
 10
4.377269227103273
 20
9.01969586893567
 30
0.0
 10
4.376868713216388
 20
9.020071912645793
 30
0.0
 10
4.374760293476805
 20
9.022051514370804
 30
0.0
 10
4.371570871089446
 20
9.019491784288398
 30
0.0
 10
4.368987309069112
 20
9.017418298678769
 30
0.0
  0
SPLINE
  5
29F
330
1F
100
AcDbEntity
  8
0
  6
Continuous
 62
     7
370
     5
100
AcDbSpline
210
0.0
220
0.0
230
1.0
 70
     8
 71
     3
 72
     9
 73
     5
 74
     0
 42
0.0000000001
 43
0.0000000001
 40
0.0
 40
0.0
 40
0.0
 40
0.0
 40
0.5595081349081569
 40
0.9999999999999998
 40
0.9999999999999998
 40
0.9999999999999998
 40
0.9999999999999998
 10
4.368987309069112
 20
9.017418298678769
 30
0.0
 10
4.367291726753482
 20
9.015487288683965
 30
0.0
 10
4.36426123942034
 20
9.012036025200334
 30
0.0
 10
4.361822774185664
 20
9.006368319708592
 30
0.0
 10
4.360748650086476
 20
9.003871741545744
 30
0.0
  0
SPLINE
  5
2A0
330
1F
100
AcDbEntity
  8
0
  6
Continuous
 62
     7
370
     5
100
AcDbSpline
210
0.0
220
0.0
230
1.0
 70
     8
 71
     3
 72
     9
 73
     5
 74
     0
 42
0.0000000001
 43
0.0000000001
 40
0.0
 40
0.0
 40
0.0
 40
0.0
 40
0.5588117179805418
 40
1.0
 40
1.0
 40
1.0
 40
1.0
 10
4.360748650086471
 20
9.003871741545745
 30
0.0
 10
4.359794772336429
 20
9.000956234340854
 30
0.0
 10
4.358087797125739
 20
8.995738900646731
 30
0.0
 10
4.35729474886058
 20
8.990473311856618
 30
0.0
 10
4.356944865258922
 20
8.988150195784486
 30
0.0
  0
LINE
  5
2A1
330
1F
100
AcDbEntity
  8
0
  6
Continuous
 62
     7
370
     5
100
AcDbLine
 10
4.344753341995868
 20
8.941222529649444
 30
0.0
 11
4.345637466890257
 21
8.940982243447653
 31
0.0
  0
SPLINE
  5
2A2
330
1F
100
AcDbEntity
  8
0
  6
Continuous
 62
     7
370
     5
100
AcDbSpline
210
0.0
220
0.0
230
1.0
 70
     8
 71
     3
 72
     9
 73
     5
 74
     0
 42
0.0000000001
 43
0.0000000001
 40
0.0
 40
0.0
 40
0.0
 40
0.0
 40
0.5588117179805418
 40
1.0
 40
1.0
 40
1.0
 40
1.0
 10
4.36163277498086
 20
9.003631455343954
 30
0.0
 10
4.360678897230819
 20
9.000715948139065
 30
0.0
 10
4.35897192202012
 20
8.995498614444942
 30
0.0
 10
4.35817887375497
 20
8.990233025654827
 30
0.0
 10
4.357828990153311
 20
8.987909909582693
 30
0.0
  0
SPLINE
  5
2A3
330
1F
100
AcDbEntity
  8
0
  6
Continuous
 62
     7
370
     5
100
AcDbSpline
210
0.0
220
0.0
230
1.0
 70
     8
 71
     3
 72
     9
 73
     5
 74
     0
 42
0.0000000001
 43
0.0000000001
 40
0.0
 40
0.0
 40
0.0
 40
0.0
 40
0.5595081349081569
 40
0.9999999999999998
 40
0.9999999999999998
 40
0.9999999999999998
 40
0.9999999999999998
 10
4.369871433963501
 20
9.017178012476978
 30
0.0
 10
4.368175851647876
 20
9.015247002482174
 30
0.0
 10
4.365145364314734
 20
9.011795738998543
 30
0.0
 10
4.362706899080054
 20
9.006128033506801
 30
0.0
 10
4.361632774980865
 20
9.003631455343953
 30
0.0
  0
SPLINE
  5
2A4
330
1F
100
AcDbEntity
  8
0
  6
Continuous
 62
     7
370
     5
100
AcDbSpline
210
0.0
220
0.0
230
1.0
 70
     8
 71
     3
 72
    10
 73
     6
 74
     0
 42
0.0000000001
 43
0.0000000001
 40
0.0
 40
0.0
 40
0.0
 40
0.0
 40
0.2813110869583656
 40
0.5615367832759591
 40
1.0
 40
1.0
 40
1.0
 40
1.0
 10
4.382098002534116
 20
9.011597209667327
 30
0.0
 10
4.381616868632311
 20
9.01389343500827
 30
0.0
 10
4.380656457201437
 20
9.018477026098022
 30
0.0
 10
4.376385350763896
 20
9.021714181963451
 30
0.0
 10
4.372339659912626
 20
9.01889683873455
 30
0.0
 10
4.369871433963501
 20
9.017178012476978
 30
0.0
  0
LINE
  5
2A5
330
1F
100
AcDbEntity
  8
0
  6
Continuous
 62
     7
370
     5
100
AcDbLine
 10
4.357828990153311
 20
8.987909909582693
 30
0.0
 11
4.382098002534116
 21
9.011597209667327
 31
0.0
  0
LINE
  5
2A6
330
1F
100
AcDbEntity
  8
0
  6
Continuous
 62
     7
370
     5
100
AcDbLine
 10
4.356944865258922
 20
8.988150195784486
 30
0.0
 11
4.357828990153311
 21
8.987909909582693
 31
0.0
  0
LINE
  5
2A7
330
1F
100
AcDbEntity
  8
0
  6
Continuous
 62
     7
370
     5
100
AcDbLine
 10
4.360748650086471
 20
9.003871741545745
 30
0.0
 11
4.36163277498086
 21
9.003631455343954
 31
0.0
  0
LINE
  5
2A8
330
1F
100
AcDbEntity
  8
0
  6
Continuous
 62
     7
370
     5
100
AcDbLine
 10
4.368987309069112
 20
9.017418298678769
 30
0.0
 11
4.369871433963501
 21
9.017178012476978
 31
0.0
  0
LINE
  5
2A9
330
1F
100
AcDbEntity
  8
0
  6
Continuous
 62
     7
370
     5
100
AcDbLine
 10
4.368689287059123
 20
8.963554374055613
 30
0.0
 11
4.369573411953513
 21
8.963314087853822
 31
0.0
  0
LINE
  5
2AA
330
1F
100
AcDbEntity
  8
0
  6
Continuous
 62
     7
370
     5
100
AcDbLine
 10
4.356532945999362
 20
8.980536553329336
 30
0.0
 11
4.357417070893752
 21
8.980296267127545
 31
0.0
  0
LINE
  5
2AB
330
1F
100
AcDbEntity
  8
0
  6
Continuous
 62
     7
370
     5
100
AcDbLine
 10
4.38514045793947
 20
9.008458361986701
 30
0.0
 11
4.38602458283386
 21
9.00821807578491
 31
0.0
  0
LINE
  5
2AC
330
1F
100
AcDbEntity
  8
0
  6
Continuous
 62
     7
370
     5
100
AcDbLine
 10
4.381660842206843
 20
9.025441787526526
 30
0.0
 11
4.382544967101233
 21
9.025201501324735
 31
0.0
  0
LINE
  5
2AD
330
1F
100
AcDbEntity
  8
0
  6
Continuous
 62
     7
370
     5
100
AcDbLine
 10
4.677341089576863
 20
9.070257802365579
 30
0.0
 11
4.701609280583273
 21
9.093944300763624
 31
0.0
  0
LINE
  5
2AE
330
1F
100
AcDbEntity
  8
0
  6
Continuous
 62
     7
370
     5
100
AcDbLine
 10
4.977991703555612
 20
9.018829480358704
 30
0.0
 11
4.701609280583273
 21
9.093944300763624
 31
0.0
  0
LINE
  5
2AF
330
1F
100
AcDbEntity
  8
0
  6
Continuous
 62
     7
370
     5
100
AcDbLine
 10
4.474815513468161
 20
9.068167196246591
 30
0.0
 11
4.474815513468161
 21
9.075635254370146
 31
0.0
  0
LINE
  5
2B0
330
1F
100
AcDbEntity
  8
0
  6
Continuous
 62
     7
370
     5
100
AcDbLine
 10
4.411529300740437
 20
9.00639791249579
 30
0.0
 11
4.474815513468161
 21
9.068167196246591
 31
0.0
  0
LINE
  5
2B1
330
1F
100
AcDbEntity
  8
0
  6
Continuous
 62
     7
370
     5
100
AcDbLine
 10
4.474815513468161
 20
9.068167196246591
 30
0.0
 11
4.475699638362551
 21
9.0679269100448
 31
0.0
  0
SPLINE
  5
2B2
330
1F
100
AcDbEntity
  8
0
  6
Continuous
 62
     7
370
     5
100
AcDbSpline
210
0.0
220
0.0
230
1.0
 70
     8
 71
     3
 72
    11
 73
     7
 74
     0
 42
0.0000000001
 43
0.0000000001
 40
0.0
 40
0.0
 40
0.0
 40
0.0
 40
0.173467074933649
 40
0.3149037001118319
 40
0.5017219416595399
 40
1.0
 40
1.0
 40
1.0
 40
1.0
 10
4.561286207019304
 20
9.133692533759987
 30
0.0
 10
4.556595753136517
 20
9.138922853891893
 30
0.0
 10
4.548080931038675
 20
9.148417722949528
 30
0.0
 10
4.53363829526737
 20
9.160966287533891
 30
0.0
 10
4.5121079652751
 20
9.179381551037051
 30
0.0
 10
4.505378883029379
 20
9.196191139746066
 30
0.0
 10
4.50048474765547
 20
9.208416938111634
 30
0.0
  0
LINE
  5
2B3
330
1F
100
AcDbEntity
  8
0
  6
Continuous
 62
     7
370
     5
100
AcDbLine
 10
4.585554398025714
 20
9.157379032158029
 30
0.0
 11
4.561286207019304
 21
9.133692533759987
 31
0.0
  0
SPLINE
  5
2B4
330
1F
100
AcDbEntity
  8
0
  6
Continuous
 62
     7
370
     5
100
AcDbSpline
210
0.0
220
0.0
230
1.0
 70
     8
 71
     3
 72
    10
 73
     6
 74
     0
 42
0.0000000001
 43
0.0000000001
 40
0.0
 40
0.0
 40
0.0
 40
0.0
 40
0.4052079625183785
 40
0.7306539930347974
 40
1.0
 40
1.0
 40
1.0
 40
1.0
 10
4.585554398025714
 20
9.157379032158029
 30
0.0
 10
4.575512963954078
 20
9.163725081775007
 30
0.0
 10
4.557406671435435
 20
9.175168012125693
 30
0.0
 10
4.530101501444764
 20
9.186171144406964
 30
0.0
 10
4.515737546131409
 20
9.190983021466962
 30
0.0
 10
4.509232963413284
 20
9.193162034954779
 30
0.0
  0
SPLINE
  5
2B5
330
1F
100
AcDbEntity
  8
0
  6
Continuous
 62
     7
370
     5
100
AcDbSpline
210
0.0
220
0.0
230
1.0
 70
     8
 71
     3
 72
    12
 73
     8
 74
     0
 42
0.0000000001
 43
0.0000000001
 40
0.0
 40
0.0
 40
0.0
 40
0.0
 40
0.1911241590165038
 40
0.3400676228993206
 40
0.5107729376937069
 40
0.6826120897981506
 40
1.0
 40
1.0
 40
1.0
 40
1.0
 10
4.50048474765547
 20
7.849088802937349
 30
0.0
 10
4.503248181518469
 20
7.848901528836478
 30
0.0
 10
4.50816516527219
 20
7.848568311630232
 30
0.0
 10
4.519136226082202
 20
7.846039281846179
 30
0.0
 10
4.531206773401212
 20
7.84186982325531
 30
0.0
 10
4.545273156591623
 20
7.830409042683672
 30
0.0
 10
4.55498537107598
 20
7.819684562360192
 30
0.0
 10
4.561286207019304
 20
7.812727015118581
 30
0.0
  0
ARC
  5
2B6
330
1F
100
AcDbEntity
  8
0
  6
Continuous
 62
     7
370
     5
100
AcDbCircle
 10
4.783065835077409
 20
9.380849926775781
 30
0.0
 40
0.2982448801027164
100
AcDbArc
 50
228.5286194251189
 51
254.1500076894849
  0
LINE
  5
2B7
330
1F
100
AcDbEntity
  8
0
  6
Continuous
 62
     7
370
     5
100
AcDbLine
 10
5.381201759987782
 20
7.638796109398366
 30
0.0
 11
5.502341398393377
 21
7.605872951388192
 31
0.0
  0
LINE
  5
2B8
330
1F
100
AcDbEntity
  8
0
  6
Continuous
 62
     7
370
     5
100
AcDbLine
 10
5.381201759987782
 20
7.646785513509369
 30
0.0
 11
5.381201759987782
 21
7.638796109398366
 31
0.0
  0
LINE
  5
2B9
330
1F
100
AcDbEntity
  8
0
  6
Continuous
 62
     7
370
     5
100
AcDbLine
 10
5.381201759987782
 20
7.638796109398366
 30
0.0
 11
5.380735082435162
 21
7.638340617800347
 31
0.0
  0
LINE
  5
2BA
330
1F
100
AcDbEntity
  8
0
  6
Continuous
 62
     7
370
     5
100
AcDbLine
 10
5.344593593292512
 20
7.57695770395817
 30
0.0
 11
5.328799719005365
 21
7.581250140567626
 31
0.0
  0
SPLINE
  5
2BB
330
1F
100
AcDbEntity
  8
0
  6
Continuous
 62
     7
370
     5
100
AcDbSpline
210
0.0
220
0.0
230
1.0
 70
     8
 71
     3
 72
     9
 73
     5
 74
     0
 42
0.0000000001
 43
0.0000000001
 40
0.0
 40
0.0
 40
0.0
 40
0.0
 40
0.5602791532087974
 40
1.0
 40
1.0
 40
1.0
 40
1.0
 10
5.328799719005365
 20
7.581250140567626
 30
0.0
 10
5.325255022145952
 20
7.582202603351078
 30
0.0
 10
5.318928360089874
 20
7.583902582331195
 30
0.0
 10
5.312666814935782
 20
7.586464060128343
 30
0.0
 10
5.309913482998399
 20
7.587590395314343
 30
0.0
  0
SPLINE
  5
2BC
330
1F
100
AcDbEntity
  8
0
  6
Continuous
 62
     7
370
     5
100
AcDbSpline
210
0.0
220
0.0
230
1.0
 70
     8
 71
     3
 72
    11
 73
     7
 74
     0
 42
0.0000000001
 43
0.0000000001
 40
0.0
 40
0.0
 40
0.0
 40
0.0
 40
0.2796925180848716
 40
0.5594005034070097
 40
0.779499630623477
 40
1.0
 40
1.0
 40
1.0
 40
1.0
 10
5.309913482998394
 20
7.587590395314345
 30
0.0
 10
5.30739594913625
 20
7.589157275489903
 30
0.0
 10
5.302360742190147
 20
7.592291122490849
 30
0.0
 10
5.29712698944368
 20
7.599131912769556
 30
0.0
 10
5.29440881378357
 20
7.606059726905861
 30
0.0
 10
5.294159358237805
 20
7.610187513352744
 30
0.0
 10
5.294034516878687
 20
7.612253286108462
 30
0.0
  0
SPLINE
  5
2BD
330
1F
100
AcDbEntity
  8
0
  6
Continuous
 62
     7
370
     5
100
AcDbSpline
210
0.0
220
0.0
230
1.0
 70
     8
 71
     3
 72
    10
 73
     6
 74
     0
 42
0.0000000001
 43
0.0000000001
 40
0.0
 40
0.0
 40
0.0
 40
0.0
 40
0.4959522168046782
 40
0.99033297801789
 40
1.0
 40
1.0
 40
1.0
 40
1.0
 10
5.294034516878687
 20
7.612253286108462
 30
0.0
 10
5.294270092573697
 20
7.614791438754886
 30
0.0
 10
5.294740497527405
 20
7.619859701752463
 30
0.0
 10
5.297366999273206
 20
7.624301922074757
 30
0.0
 10
5.299572987679963
 20
7.625299762842249
 30
0.0
 10
5.299615295848218
 20
7.625318900211672
 30
0.0
  0
LINE
  5
2BE
330
1F
100
AcDbEntity
  8
0
  6
Continuous
 62
     7
370
     5
100
AcDbLine
 10
5.337618138433235
 20
7.622123942917033
 30
0.0
 11
5.337618138433235
 21
7.65863060796385
 31
0.0
  0
LINE
  5
2BF
330
1F
100
AcDbEntity
  8
0
  6
Continuous
 62
     7
370
     5
100
AcDbLine
 10
5.337618138433235
 20
7.587095451518738
 30
0.0
 11
5.337618138433235
 21
7.613881974521299
 31
0.0
  0
LINE
  5
2C0
330
1F
100
AcDbEntity
  8
0
  6
Continuous
 62
     7
370
     5
100
AcDbLine
 10
5.337618138433235
 20
7.613881974521299
 30
0.0
 11
5.323102717045022
 21
7.618004089460401
 31
0.0
  0
SPLINE
  5
2C1
330
1F
100
AcDbEntity
  8
0
  6
Continuous
 62
     7
370
     5
100
AcDbSpline
210
0.0
220
0.0
230
1.0
 70
     8
 71
     3
 72
    11
 73
     7
 74
     0
 42
0.0000000001
 43
0.0000000001
 40
0.0
 40
0.0
 40
0.0
 40
0.0
 40
0.6499617281096866
 40
0.8133952817183089
 40
0.9768681715611048
 40
1.0
 40
1.0
 40
1.0
 40
1.0
 10
5.323102717045022
 20
7.618004089460401
 30
0.0
 10
5.317995827169895
 20
7.619437096779287
 30
0.0
 10
5.311604804515734
 20
7.621230435281294
 30
0.0
 10
5.305701556673435
 20
7.618710288473389
 30
0.0
 10
5.303642526398108
 20
7.617436379436341
 30
0.0
 10
5.303305629847232
 20
7.616213531220895
 30
0.0
 10
5.303263867595505
 20
7.616061944940621
 30
0.0
  0
LINE
  5
2C2
330
1F
100
AcDbEntity
  8
0
  6
Continuous
 62
     7
370
     5
100
AcDbLine
 10
5.337618138433235
 20
7.622123942917033
 30
0.0
 11
5.337151460880614
 21
7.621668451319013
 31
0.0
  0
LINE
  5
2C3
330
1F
100
AcDbEntity
  8
0
  6
Continuous
 62
     7
370
     5
100
AcDbLine
 10
5.279749466061545
 20
7.592520456199036
 30
0.0
 11
5.27277608661282
 21
7.594415671311752
 31
0.0
  0
LINE
  5
2C4
330
1F
100
AcDbEntity
  8
0
  6
Continuous
 62
     7
370
     5
100
AcDbLine
 10
5.27277608661282
 20
7.594415671311752
 30
0.0
 11
5.27277608661282
 21
7.676253288251536
 31
0.0
  0
SPLINE
  5
2C5
330
1F
100
AcDbEntity
  8
0
  6
Continuous
 62
     7
370
     5
100
AcDbSpline
210
0.0
220
0.0
230
1.0
 70
     8
 71
     3
 72
    11
 73
     7
 74
     0
 42
0.0000000001
 43
0.0000000001
 40
0.0
 40
0.0
 40
0.0
 40
0.0
 40
0.2490268025535186
 40
0.3747681826211988
 40
0.5004102692762919
 40
1.0
 40
1.0
 40
1.0
 40
1.0
 10
5.301010261559144
 20
7.609807412738859
 30
0.0
 10
5.301382571604489
 20
7.607398549031128
 30
0.0
 10
5.301942872574663
 20
7.60377337509534
 30
0.0
 10
5.304999592384276
 20
7.599319615759217
 30
0.0
 10
5.310863520268647
 20
7.593667801095388
 30
0.0
 10
5.317046190597871
 20
7.592052327992416
 30
0.0
 10
5.321986435990182
 20
7.590761488738762
 30
0.0
  0
SPLINE
  5
2C6
330
1F
100
AcDbEntity
  8
0
  6
Continuous
 62
     7
370
     5
100
AcDbSpline
210
0.0
220
0.0
230
1.0
 70
     8
 71
     3
 72
    11
 73
     7
 74
     0
 42
0.0000000001
 43
0.0000000001
 40
0.0
 40
0.0
 40
0.0
 40
0.0
 40
0.499710806372163
 40
0.6253636091911168
 40
0.7510466549312277
 40
1.0
 40
1.0
 40
1.0
 40
1.0
 10
5.322636039492405
 20
7.61754859786238
 30
0.0
 10
5.317580339475213
 20
7.618945032885998
 30
0.0
 10
5.311253378422088
 20
7.620692602950997
 30
0.0
 10
5.305138220449794
 20
7.618323854098797
 30
0.0
 10
5.301939088545344
 20
7.615506609629564
 30
0.0
 10
5.301381073604138
 20
7.612082681314523
 30
0.0
 10
5.301010261559144
 20
7.609807412738859
 30
0.0
  0
LINE
  5
2C7
330
1F
100
AcDbEntity
  8
0
  6
Continuous
 62
     7
370
     5
100
AcDbLine
 10
5.337151460880614
 20
7.613426482923278
 30
0.0
 11
5.322636039492401
 21
7.617548597862382
 31
0.0
  0
LINE
  5
2C8
330
1F
100
AcDbEntity
  8
0
  6
Continuous
 62
     7
370
     5
100
AcDbLine
 10
5.337151460880614
 20
7.586639959920717
 30
0.0
 11
5.337151460880614
 21
7.613426482923278
 31
0.0
  0
LINE
  5
2C9
330
1F
100
AcDbEntity
  8
0
  6
Continuous
 62
     7
370
     5
100
AcDbLine
 10
5.321986435990182
 20
7.590761488738762
 30
0.0
 11
5.337151460880614
 21
7.586639959920717
 31
0.0
  0
LINE
  5
2CA
330
1F
100
AcDbEntity
  8
0
  6
Continuous
 62
     7
370
     5
100
AcDbLine
 10
5.323102717045022
 20
7.618004089460401
 30
0.0
 11
5.322636039492401
 21
7.617548597862382
 31
0.0
  0
LINE
  5
2CB
330
1F
100
AcDbEntity
  8
0
  6
Continuous
 62
     7
370
     5
100
AcDbLine
 10
5.337618138433235
 20
7.613881974521299
 30
0.0
 11
5.337151460880614
 21
7.613426482923278
 31
0.0
  0
LINE
  5
2CC
330
1F
100
AcDbEntity
  8
0
  6
Continuous
 62
     7
370
     5
100
AcDbLine
 10
5.337618138433235
 20
7.587095451518738
 30
0.0
 11
5.337151460880614
 21
7.586639959920717
 31
0.0
  0
LINE
  5
2CD
330
1F
100
AcDbEntity
  8
0
  6
Continuous
 62
     7
370
     5
100
AcDbLine
 10
5.27277608661282
 20
7.594415671311752
 30
0.0
 11
5.272309409060198
 21
7.593960179713732
 31
0.0
  0
LINE
  5
2CE
330
1F
100
AcDbEntity
  8
0
  6
Continuous
 62
     7
370
     5
100
AcDbLine
 10
5.294034516878687
 20
7.612253286108462
 30
0.0
 11
5.293567839326065
 21
7.611797794510442
 31
0.0
  0
LINE
  5
2CF
330
1F
100
AcDbEntity
  8
0
  6
Continuous
 62
     7
370
     5
100
AcDbLine
 10
5.194113875938509
 20
7.639490159499901
 30
0.0
 11
5.194113875938509
 21
7.697631991585524
 31
0.0
  0
SPLINE
  5
2D0
330
1F
100
AcDbEntity
  8
0
  6
Continuous
 62
     7
370
     5
100
AcDbSpline
210
0.0
220
0.0
230
1.0
 70
     8
 71
     3
 72
    11
 73
     7
 74
     0
 42
0.0000000001
 43
0.0000000001
 40
0.0
 40
0.0
 40
0.0
 40
0.0
 40
0.0062540463725964
 40
0.3921267155659983
 40
0.6960019814176443
 40
1.0
 40
1.0
 40
1.0
 40
1.0
 10
5.254931706702056
 20
7.639368300326626
 30
0.0
 10
5.254916039892645
 20
7.639302021129303
 30
0.0
 10
5.253933735932805
 20
7.635146336567939
 30
0.0
 10
5.24706844282304
 20
7.631129959361009
 30
0.0
 10
5.237089370555222
 20
7.627655712082439
 30
0.0
 10
5.229742932813582
 20
7.629068610926034
 30
0.0
 10
5.226068972180197
 20
7.629775203006831
 30
0.0
  0
SPLINE
  5
2D1
330
1F
100
AcDbEntity
  8
0
  6
Continuous
 62
     7
370
     5
100
AcDbSpline
210
0.0
220
0.0
230
1.0
 70
     8
 71
     3
 72
     9
 73
     5
 74
     0
 42
0.0000000001
 43
0.0000000001
 40
0.0
 40
0.0
 40
0.0
 40
0.0
 40
0.5590685773958212
 40
1.0
 40
1.0
 40
1.0
 40
1.0
 10
5.226068972180197
 20
7.629775203006832
 30
0.0
 10
5.220598133673838
 20
7.631857773847223
 30
0.0
 10
5.210812503202826
 20
7.635582846091651
 30
0.0
 10
5.204387297744365
 20
7.644432058379977
 30
0.0
 10
5.201554222761041
 20
7.648333954143196
 30
0.0
  0
LINE
  5
2D2
330
1F
100
AcDbEntity
  8
0
  6
Continuous
 62
     7
370
     5
100
AcDbLine
 10
5.201087255387239
 20
7.637594944387184
 30
0.0
 11
5.194113875938509
 21
7.639490159499901
 31
0.0
  0
SPLINE
  5
2D3
330
1F
100
AcDbEntity
  8
0
  6
Continuous
 62
     7
370
     5
100
AcDbSpline
210
0.0
220
0.0
230
1.0
 70
     8
 71
     3
 72
    10
 73
     6
 74
     0
 42
0.0000000001
 43
0.0000000001
 40
0.0
 40
0.0
 40
0.0
 40
0.0
 40
0.1002951816076095
 40
0.5503293986819548
 40
1.0
 40
1.0
 40
1.0
 40
1.0
 10
5.243259597767638
 20
7.639462991507499
 30
0.0
 10
5.243767555413929
 20
7.639669767714381
 30
0.0
 10
5.246554768334395
 20
7.640804368836501
 30
0.0
 10
5.249433510809966
 20
7.645779924372845
 30
0.0
 10
5.250113242330962
 20
7.65090067630519
 30
0.0
 10
5.25045297073469
 20
7.653460017495263
 30
0.0
  0
SPLINE
  5
2D4
330
1F
100
AcDbEntity
  8
0
  6
Continuous
 62
     7
370
     5
100
AcDbSpline
210
0.0
220
0.0
230
1.0
 70
     8
 71
     3
 72
    11
 73
     7
 74
     0
 42
0.0000000001
 43
0.0000000001
 40
0.0
 40
0.0
 40
0.0
 40
0.0
 40
0.2793980834328779
 40
0.5590912984903421
 40
0.7795192388228417
 40
1.0
 40
1.0
 40
1.0
 40
1.0
 10
5.25045297073469
 20
7.653460017495263
 30
0.0
 10
5.249942340276489
 20
7.657023631772541
 30
0.0
 10
5.248920539974879
 20
7.664154624616593
 30
0.0
 10
5.242422158281198
 20
7.673593156415812
 30
0.0
 10
5.234402873792347
 20
7.680295476945075
 30
0.0
 10
5.228825024413755
 20
7.682336509562753
 30
0.0
 10
5.226035765611395
 20
7.683357148129402
 30
0.0
  0
SPLINE
  5
2D5
330
1F
100
AcDbEntity
  8
0
  6
Continuous
 62
     7
370
     5
100
AcDbSpline
210
0.0
220
0.0
230
1.0
 70
     8
 71
     3
 72
    10
 73
     6
 74
     0
 42
0.0000000001
 43
0.0000000001
 40
0.0
 40
0.0
 40
0.0
 40
0.0
 40
0.4214139536009062
 40
0.8425757834561203
 40
0.9999999999999998
 40
0.9999999999999998
 40
0.9999999999999998
 40
0.9999999999999998
 10
5.22603576561139
 20
7.683357148129402
 30
0.0
 10
5.222527001102112
 20
7.68387363844238
 30
0.0
 10
5.215511571308894
 20
7.684906310062257
 30
0.0
 10
5.207942708628268
 20
7.682203590315379
 30
0.0
 10
5.20570072973911
 20
7.678621766820975
 30
0.0
 10
5.205090722338607
 20
7.67764720865298
 30
0.0
  0
LINE
  5
2D6
330
1F
100
AcDbEntity
  8
0
  6
Continuous
 62
     7
370
     5
100
AcDbLine
 10
5.22603576561139
 20
7.683357148129402
 30
0.0
 11
5.225569088058769
 21
7.682901656531383
 31
0.0
  0
LINE
  5
2D7
330
1F
100
AcDbEntity
  8
0
  6
Continuous
 62
     7
370
     5
100
AcDbLine
 10
5.25045297073469
 20
7.653460017495263
 30
0.0
 11
5.249986293182069
 21
7.653004525897244
 31
0.0
  0
SPLINE
  5
2D8
330
1F
100
AcDbEntity
  8
0
  6
Continuous
 62
     7
370
     5
100
AcDbSpline
210
0.0
220
0.0
230
1.0
 70
     8
 71
     3
 72
    11
 73
     7
 74
     0
 42
0.0000000001
 43
0.0000000001
 40
0.0
 40
0.0
 40
0.0
 40
0.0
 40
0.2793980834328779
 40
0.5590912984903421
 40
0.7795192388228417
 40
1.0
 40
1.0
 40
1.0
 40
1.0
 10
5.249986293182069
 20
7.653004525897244
 30
0.0
 10
5.249475662723868
 20
7.656568140174521
 30
0.0
 10
5.248453862422258
 20
7.663699133018573
 30
0.0
 10
5.241955480728576
 20
7.673137664817792
 30
0.0
 10
5.233936196239725
 20
7.679839985347055
 30
0.0
 10
5.228358346861134
 20
7.681881017964733
 30
0.0
 10
5.225569088058773
 20
7.682901656531382
 30
0.0
  0
SPLINE
  5
2D9
330
1F
100
AcDbEntity
  8
0
  6
Continuous
 62
     7
370
     5
100
AcDbSpline
210
0.0
220
0.0
230
1.0
 70
     8
 71
     3
 72
    11
 73
     7
 74
     0
 42
0.0000000001
 43
0.0000000001
 40
0.0
 40
0.0
 40
0.0
 40
0.0
 40
0.2797852363859867
 40
0.5594030827242919
 40
0.7795736341049614
 40
1.0
 40
1.0
 40
1.0
 40
1.0
 10
5.225569088058769
 20
7.682901656531383
 30
0.0
 10
5.22201715052667
 20
7.683451054146622
 30
0.0
 10
5.214915400517394
 20
7.684549520683226
 30
0.0
 10
5.206629313910822
 20
7.680917704885761
 30
0.0
 10
5.201804762905376
 20
7.674455940601029
 30
0.0
 10
5.201326710294615
 20
7.669155239374143
 30
0.0
 10
5.201087545208415
 20
7.66650334994341
 30
0.0
  0
SPLINE
  5
2DA
330
1F
100
AcDbEntity
  8
0
  6
Continuous
 62
     7
370
     5
100
AcDbSpline
210
0.0
220
0.0
230
1.0
 70
     8
 71
     3
 72
    11
 73
     7
 74
     0
 42
0.0000000001
 43
0.0000000001
 40
0.0
 40
0.0
 40
0.0
 40
0.0
 40
0.2797756845565344
 40
0.5592620545000341
 40
0.7797200893835674
 40
1.0
 40
1.0
 40
1.0
 40
1.0
 10
5.225502674921163
 20
7.63655850825669
 30
0.0
 10
5.229055982888612
 20
7.635993755106995
 30
0.0
 10
5.236158924365818
 20
7.63486483281596
 30
0.0
 10
5.24423156061747
 20
7.638791606446138
 30
0.0
 10
5.249079818348527
 20
7.645148627243496
 30
0.0
 10
5.249684216326711
 20
7.650386598654816
 30
0.0
 10
5.249986293182073
 20
7.653004525897243
 30
0.0
  0
SPLINE
  5
2DB
330
1F
100
AcDbEntity
  8
0
  6
Continuous
 62
     7
370
     5
100
AcDbSpline
210
0.0
220
0.0
230
1.0
 70
     8
 71
     3
 72
    11
 73
     7
 74
     0
 42
0.0000000001
 43
0.0000000001
 40
0.0
 40
0.0
 40
0.0
 40
0.0
 40
0.2796597417202925
 40
0.5592068723912931
 40
0.7795200289450425
 40
1.0
 40
1.0
 40
1.0
 40
1.0
 10
5.201087545208415
 20
7.66650334994341
 30
0.0
 10
5.201486427604492
 20
7.662913571465075
 30
0.0
 10
5.202284031778013
 20
7.655735460010424
 30
0.0
 10
5.208964714750461
 20
7.646240716307287
 30
0.0
 10
5.217050009200086
 20
7.639509051738134
 30
0.0
 10
5.222684408916869
 20
7.637542270854472
 30
0.0
 10
5.225502674921168
 20
7.63655850825669
 30
0.0
  0
LINE
  5
2DC
330
1F
100
AcDbEntity
  8
0
  6
Continuous
 62
     7
370
     5
100
AcDbLine
 10
5.328799719005365
 20
7.581250140567626
 30
0.0
 11
5.328333041452744
 21
7.580794648969606
 31
0.0
  0
LINE
  5
2DD
330
1F
100
AcDbEntity
  8
0
  6
Continuous
 62
     7
370
     5
100
AcDbLine
 10
5.309913482998394
 20
7.587590395314345
 30
0.0
 11
5.309446805445773
 21
7.587134903716325
 31
0.0
  0
LINE
  5
2DE
330
1F
100
AcDbEntity
  8
0
  6
Continuous
 62
     7
370
     5
100
AcDbLine
 10
5.226068972180197
 20
7.629775203006832
 30
0.0
 11
5.225602294627576
 21
7.629319711408812
 31
0.0
  0
LINE
  5
2DF
330
1F
100
AcDbEntity
  8
0
  6
Continuous
 62
     7
370
     5
100
AcDbLine
 10
5.194113875938509
 20
7.639490159499901
 30
0.0
 11
5.193647198385888
 21
7.639034667901881
 31
0.0
  0
LINE
  5
2E0
330
1F
100
AcDbEntity
  8
0
  6
Continuous
 62
     7
370
     5
100
AcDbLine
 10
5.169196496872609
 20
7.622566384361004
 30
0.0
 11
5.162223117423883
 21
7.624461599473721
 31
0.0
  0
LINE
  5
2E1
330
1F
100
AcDbEntity
  8
0
  6
Continuous
 62
     7
370
     5
100
AcDbLine
 10
5.162223117423883
 20
7.624461599473721
 30
0.0
 11
5.162223117423883
 21
7.64815738432788
 31
0.0
  0
LINE
  5
2E2
330
1F
100
AcDbEntity
  8
0
  6
Continuous
 62
     7
370
     5
100
AcDbLine
 10
5.162223117423883
 20
7.64815738432788
 30
0.0
 11
5.151592864585672
 21
7.65104645927054
 31
0.0
  0
LINE
  5
2E3
330
1F
100
AcDbEntity
  8
0
  6
Continuous
 62
     7
370
     5
100
AcDbLine
 10
5.151592864585672
 20
7.65104645927054
 30
0.0
 11
5.151592864585672
 21
7.657675863166397
 31
0.0
  0
LINE
  5
2E4
330
1F
100
AcDbEntity
  8
0
  6
Continuous
 62
     7
370
     5
100
AcDbLine
 10
5.162223117423883
 20
7.655369106674148
 30
0.0
 11
5.162223117423883
 21
7.706299216413504
 31
0.0
  0
LINE
  5
2E5
330
1F
100
AcDbEntity
  8
0
  6
Continuous
 62
     7
370
     5
100
AcDbLine
 10
5.17982674971082
 20
7.643373094272504
 30
0.0
 11
5.16966346424641
 21
7.646135257488866
 31
0.0
  0
LINE
  5
2E6
330
1F
100
AcDbEntity
  8
0
  6
Continuous
 62
     7
370
     5
100
AcDbLine
 10
5.201554222761036
 20
7.648333954143196
 30
0.0
 11
5.201087545208415
 21
7.647878462545176
 31
0.0
  0
LINE
  5
2E7
330
1F
100
AcDbEntity
  8
0
  6
Continuous
 62
     7
370
     5
100
AcDbLine
 10
5.162223117423883
 20
7.655369106674148
 30
0.0
 11
5.161756439871262
 21
7.654913615076129
 31
0.0
  0
LINE
  5
2E8
330
1F
100
AcDbEntity
  8
0
  6
Continuous
 62
     7
370
     5
100
AcDbLine
 10
5.088045868948591
 20
7.708496892682922
 30
0.0
 11
5.081435686346151
 21
7.713657821466624
 31
0.0
  0
LINE
  5
2E9
330
1F
100
AcDbEntity
  8
0
  6
Continuous
 62
     7
370
     5
100
AcDbLine
 10
5.081435686346151
 20
7.713657821466624
 30
0.0
 11
5.086661570111597
 21
7.71937697364196
 31
0.0
  0
SPLINE
  5
2EA
330
1F
100
AcDbEntity
  8
0
  6
Continuous
 62
     7
370
     5
100
AcDbSpline
210
0.0
220
0.0
230
1.0
 70
     8
 71
     3
 72
     9
 73
     5
 74
     0
 42
0.0000000001
 43
0.0000000001
 40
0.0
 40
0.0
 40
0.0
 40
0.0
 40
0.5585821358403351
 40
1.0
 40
1.0
 40
1.0
 40
1.0
 10
5.132924546686477
 20
7.666036242002549
 30
0.0
 10
5.129204232503689
 20
7.663498820172089
 30
0.0
 10
5.122543951151889
 20
7.658956208320308
 30
0.0
 10
5.113314157352824
 20
7.660739602652968
 30
0.0
 10
5.109239961487409
 20
7.661526824770245
 30
0.0
  0
SPLINE
  5
2EB
330
1F
100
AcDbEntity
  8
0
  6
Continuous
 62
     7
370
     5
100
AcDbSpline
210
0.0
220
0.0
230
1.0
 70
     8
 71
     3
 72
     9
 73
     5
 74
     0
 42
0.0000000001
 43
0.0000000001
 40
0.0
 40
0.0
 40
0.0
 40
0.0
 40
0.5588963140147995
 40
0.9999999999999998
 40
0.9999999999999998
 40
0.9999999999999998
 40
0.9999999999999998
 10
5.109239961487404
 20
7.661526824770246
 30
0.0
 10
5.103854450208901
 20
7.663594802725851
 30
0.0
 10
5.094218474548563
 20
7.667294912931898
 30
0.0
 10
5.087710188579093
 20
7.675914409766013
 30
0.0
 10
5.084839359648507
 20
7.679716501590881
 30
0.0
  0
SPLINE
  5
2EC
330
1F
100
AcDbEntity
  8
0
  6
Continuous
 62
     7
370
     5
100
AcDbSpline
210
0.0
220
0.0
230
1.0
 70
     8
 71
     3
 72
     9
 73
     5
 74
     0
 42
0.0000000001
 43
0.0000000001
 40
0.0
 40
0.0
 40
0.0
 40
0.0
 40
0.5588909230188178
 40
1.0
 40
1.0
 40
1.0
 40
1.0
 10
5.084839359648507
 20
7.679716501590881
 30
0.0
 10
5.08268162588032
 20
7.683836084694065
 30
0.0
 10
5.078820883686598
 20
7.691207081311673
 30
0.0
 10
5.078421813716589
 20
7.698618682193343
 30
0.0
 10
5.078245780330472
 20
7.701888006617208
 30
0.0
  0
SPLINE
  5
2ED
330
1F
100
AcDbEntity
  8
0
  6
Continuous
 62
     7
370
     5
100
AcDbSpline
210
0.0
220
0.0
230
1.0
 70
     8
 71
     3
 72
    11
 73
     7
 74
     0
 42
0.0000000001
 43
0.0000000001
 40
0.0
 40
0.0
 40
0.0
 40
0.0
 40
0.2799328308297562
 40
0.559379823324152
 40
0.7795204732267122
 40
1.0
 40
1.0
 40
1.0
 40
1.0
 10
5.132459654723227
 20
7.687153837220066
 30
0.0
 10
5.132077325617988
 20
7.690439118524843
 30
0.0
 10
5.131313330960026
 20
7.697003979353743
 30
0.0
 10
5.125440461290456
 20
7.705783869989544
 30
0.0
 10
5.118097276535445
 20
7.712082709427147
 30
0.0
 10
5.112935336540008
 20
7.713892048043426
 30
0.0
 10
5.110352381542325
 20
7.714797413124297
 30
0.0
  0
SPLINE
  5
2EE
330
1F
100
AcDbEntity
  8
0
  6
Continuous
 62
     7
370
     5
100
AcDbSpline
210
0.0
220
0.0
230
1.0
 70
     8
 71
     3
 72
    10
 73
     6
 74
     0
 42
0.0000000001
 43
0.0000000001
 40
0.0
 40
0.0
 40
0.0
 40
0.0
 40
0.3549546873413924
 40
0.7097853619257104
 40
1.0
 40
1.0
 40
1.0
 40
1.0
 10
5.110352381542321
 20
7.714797413124299
 30
0.0
 10
5.107859039989007
 20
7.715257291934986
 30
0.0
 10
5.10287322799684
 20
7.716176888885599
 30
0.0
 10
5.095967133522221
 20
7.715495831695996
 30
0.0
 10
5.093126196974811
 20
7.712726257695462
 30
0.0
 10
5.091848021076587
 20
7.711480188775325
 30
0.0
  0
SPLINE
  5
2EF
330
1F
100
AcDbEntity
  8
0
  6
Continuous
 62
     7
370
     5
100
AcDbSpline
210
0.0
220
0.0
230
1.0
 70
     8
 71
     3
 72
     9
 73
     5
 74
     0
 42
0.0000000001
 43
0.0000000001
 40
0.0
 40
0.0
 40
0.0
 40
0.0
 40
0.5587740777212119
 40
1.0
 40
1.0
 40
1.0
 40
1.0
 10
5.124469324104893
 20
7.670104906081049
 30
0.0
 10
5.126277536821516
 20
7.671597543541638
 30
0.0
 10
5.129513572258232
 20
7.674268815384952
 30
0.0
 10
5.131016270804409
 20
7.678352410464539
 30
0.0
 10
5.131679300356345
 20
7.680154198469745
 30
0.0
  0
LINE
  5
2F0
330
1F
100
AcDbEntity
  8
0
  6
Continuous
 62
     7
370
     5
100
AcDbLine
 10
5.131679300356345
 20
7.680154198469745
 30
0.0
 11
5.085686127152994
 21
7.692654157431925
 31
0.0
  0
LINE
  5
2F1
330
1F
100
AcDbEntity
  8
0
  6
Continuous
 62
     7
370
     5
100
AcDbLine
 10
5.110352381542321
 20
7.714797413124299
 30
0.0
 11
5.1098857039897
 21
7.714341921526279
 31
0.0
  0
LINE
  5
2F2
330
1F
100
AcDbEntity
  8
0
  6
Continuous
 62
     7
370
     5
100
AcDbLine
 10
5.132459654723227
 20
7.687153837220066
 30
0.0
 11
5.131992977170606
 21
7.686698345622047
 31
0.0
  0
LINE
  5
2F3
330
1F
100
AcDbEntity
  8
0
  6
Continuous
 62
     7
370
     5
100
AcDbLine
 10
5.081435686346151
 20
7.713657821466624
 30
0.0
 11
5.08096900879353
 21
7.713202329868604
 31
0.0
  0
LINE
  5
2F4
330
1F
100
AcDbEntity
  8
0
  6
Continuous
 62
     7
370
     5
100
AcDbLine
 10
5.16966346424641
 20
7.646135257488866
 30
0.0
 11
5.169196786693789
 21
7.645679765890847
 31
0.0
  0
LINE
  5
2F5
330
1F
100
AcDbEntity
  8
0
  6
Continuous
 62
     7
370
     5
100
AcDbLine
 10
5.131679300356345
 20
7.680154198469745
 30
0.0
 11
5.131212622803724
 21
7.679698706871725
 31
0.0
  0
SPLINE
  5
2F6
330
1F
100
AcDbEntity
  8
0
  6
Continuous
 62
     7
370
     5
100
AcDbSpline
210
0.0
220
0.0
230
1.0
 70
     8
 71
     3
 72
     9
 73
     5
 74
     0
 42
0.0000000001
 43
0.0000000001
 40
0.0
 40
0.0
 40
0.0
 40
0.0
 40
0.5587740777212119
 40
1.0
 40
1.0
 40
1.0
 40
1.0
 10
5.124002646552272
 20
7.669649414483029
 30
0.0
 10
5.125810859268895
 20
7.671142051943618
 30
0.0
 10
5.12904689470561
 20
7.673813323786933
 30
0.0
 10
5.130549593251789
 20
7.67789691886652
 30
0.0
 10
5.131212622803724
 20
7.679698706871725
 30
0.0
  0
LINE
  5
2F7
330
1F
100
AcDbEntity
  8
0
  6
Continuous
 62
     7
370
     5
100
AcDbLine
 10
5.085686127152994
 20
7.692654157431925
 30
0.0
 11
5.085219449600373
 21
7.692198665833905
 31
0.0
  0
LINE
  5
2F8
330
1F
100
AcDbEntity
  8
0
  6
Continuous
 62
     7
370
     5
100
AcDbLine
 10
5.131212622803724
 20
7.679698706871725
 30
0.0
 11
5.085219449600373
 21
7.692198665833905
 31
0.0
  0
SPLINE
  5
2F9
330
1F
100
AcDbEntity
  8
0
  6
Continuous
 62
     7
370
     5
100
AcDbSpline
210
0.0
220
0.0
230
1.0
 70
     8
 71
     3
 72
     9
 73
     5
 74
     0
 42
0.0000000001
 43
0.0000000001
 40
0.0
 40
0.0
 40
0.0
 40
0.0
 40
0.5594627635675793
 40
1.0
 40
1.0
 40
1.0
 40
1.0
 10
5.108389332982994
 20
7.668387405160117
 30
0.0
 10
5.111605466425024
 20
7.6677821741669
 30
0.0
 10
5.117354076791014
 20
7.666700366703329
 30
0.0
 10
5.121969417230051
 20
7.66874755278441
 30
0.0
 10
5.124002646552272
 20
7.669649414483029
 30
0.0
  0
SPLINE
  5
2FA
330
1F
100
AcDbEntity
  8
0
  6
Continuous
 62
     7
370
     5
100
AcDbSpline
210
0.0
220
0.0
230
1.0
 70
     8
 71
     3
 72
    11
 73
     7
 74
     0
 42
0.0000000001
 43
0.0000000001
 40
0.0
 40
0.0
 40
0.0
 40
0.0
 40
0.2801786478018791
 40
0.5592666526985168
 40
0.7796602794247272
 40
1.0
 40
1.0
 40
1.0
 40
1.0
 10
5.085219449600373
 20
7.692198665833905
 30
0.0
 10
5.086123028679404
 20
7.689167793136342
 30
0.0
 10
5.087926669502638
 20
7.683117845927234
 30
0.0
 10
5.094313134045104
 20
7.67580890731205
 30
0.0
 10
5.101365842762481
 20
7.670831770858407
 30
0.0
 10
5.106048360482601
 20
7.669202127285577
 30
0.0
 10
5.108389332982994
 20
7.668387405160117
 30
0.0
  0
LINE
  5
2FB
330
1F
100
AcDbEntity
  8
0
  6
Continuous
 62
     7
370
     5
100
AcDbLine
 10
5.162223117423883
 20
7.64815738432788
 30
0.0
 11
5.161756439871262
 21
7.647701892729861
 31
0.0
  0
LINE
  5
2FC
330
1F
100
AcDbEntity
  8
0
  6
Continuous
 62
     7
370
     5
100
AcDbLine
 10
5.162223117423883
 20
7.624461599473721
 30
0.0
 11
5.161756439871262
 21
7.624006107875701
 31
0.0
  0
LINE
  5
2FD
330
1F
100
AcDbEntity
  8
0
  6
Continuous
 62
     7
370
     5
100
AcDbLine
 10
5.151592864585672
 20
7.65104645927054
 30
0.0
 11
5.15112618703305
 21
7.650590967672521
 31
0.0
  0
LINE
  5
2FE
330
1F
100
AcDbEntity
  8
0
  6
Continuous
 62
     7
370
     5
100
AcDbLine
 10
5.109239961487404
 20
7.661526824770246
 30
0.0
 11
5.108773283934783
 21
7.661071333172226
 31
0.0
  0
LINE
  5
2FF
330
1F
100
AcDbEntity
  8
0
  6
Continuous
 62
     7
370
     5
100
AcDbLine
 10
5.084839359648507
 20
7.679716501590881
 30
0.0
 11
5.084372682095886
 21
7.679261009992861
 31
0.0
  0
LINE
  5
300
330
1F
100
AcDbEntity
  8
0
  6
Continuous
 62
     7
370
     5
100
AcDbLine
 10
5.028880064983019
 20
7.662761876030085
 30
0.0
 11
5.021906685534291
 21
7.664657091142801
 31
0.0
  0
LINE
  5
301
330
1F
100
AcDbEntity
  8
0
  6
Continuous
 62
     7
370
     5
100
AcDbLine
 10
5.021906685534291
 20
7.664657091142801
 30
0.0
 11
5.021906685534291
 21
7.736774566038326
 31
0.0
  0
LINE
  5
302
330
1F
100
AcDbEntity
  8
0
  6
Continuous
 62
     7
370
     5
100
AcDbLine
 10
5.021906685534291
 20
7.736774566038326
 30
0.0
 11
4.990015927019665
 21
7.745441790866306
 31
0.0
  0
LINE
  5
303
330
1F
100
AcDbEntity
  8
0
  6
Continuous
 62
     7
370
     5
100
AcDbLine
 10
4.990015927019665
 20
7.745441790866306
 30
0.0
 11
4.990015927019665
 21
7.753101440811629
 31
0.0
  0
LINE
  5
304
330
1F
100
AcDbEntity
  8
0
  6
Continuous
 62
     7
370
     5
100
AcDbLine
 10
5.021906685534291
 20
7.736774566038326
 30
0.0
 11
5.021440007981669
 21
7.736319074440307
 31
0.0
  0
LINE
  5
305
330
1F
100
AcDbEntity
  8
0
  6
Continuous
 62
     7
370
     5
100
AcDbLine
 10
5.021906685534291
 20
7.664657091142801
 30
0.0
 11
5.021440007981669
 21
7.664201599544782
 31
0.0
  0
LINE
  5
306
330
1F
100
AcDbEntity
  8
0
  6
Continuous
 62
     7
370
     5
100
AcDbLine
 10
4.990015927019665
 20
7.745441790866306
 30
0.0
 11
4.989549249467043
 21
7.744986299268286
 31
0.0
  0
LINE
  5
307
330
1F
100
AcDbEntity
  8
0
  6
Continuous
 62
     7
370
     5
100
AcDbLine
 10
4.978920782218207
 20
7.697975031342846
 30
0.0
 11
4.971945327358926
 21
7.699870810507681
 31
0.0
  0
LINE
  5
308
330
1F
100
AcDbEntity
  8
0
  6
Continuous
 62
     7
370
     5
100
AcDbLine
 10
4.971945327358926
 20
7.699870810507681
 30
0.0
 11
4.971945327358926
 21
7.758012642593303
 31
0.0
  0
LINE
  5
309
330
1F
100
AcDbEntity
  8
0
  6
Continuous
 62
     7
370
     5
100
AcDbLine
 10
4.971945327358926
 20
7.699870810507681
 30
0.0
 11
4.971478649806305
 21
7.699415318909661
 31
0.0
  0
LINE
  5
30A
330
1F
100
AcDbEntity
  8
0
  6
Continuous
 62
     7
370
     5
100
AcDbLine
 10
4.954470370526104
 20
7.704620129331811
 30
0.0
 11
4.947496991077374
 21
7.706515344444527
 31
0.0
  0
LINE
  5
30B
330
1F
100
AcDbEntity
  8
0
  6
Continuous
 62
     7
370
     5
100
AcDbLine
 10
4.947496991077374
 20
7.706515344444527
 30
0.0
 11
4.947496991077374
 21
7.7171075812838
 31
0.0
  0
SPLINE
  5
30C
330
1F
100
AcDbEntity
  8
0
  6
Continuous
 62
     7
370
     5
100
AcDbSpline
210
0.0
220
0.0
230
1.0
 70
     8
 71
     3
 72
     9
 73
     5
 74
     0
 42
0.0000000001
 43
0.0000000001
 40
0.0
 40
0.0
 40
0.0
 40
0.0
 40
0.559159351279012
 40
1.0
 40
1.0
 40
1.0
 40
1.0
 10
4.947496991077374
 20
7.7171075812838
 30
0.0
 10
4.943961117214101
 20
7.714375363667949
 30
0.0
 10
4.937637564088879
 20
7.709489068536519
 30
0.0
 10
4.928480247896408
 20
7.711058652775311
 30
0.0
 10
4.92444333068557
 20
7.711750589309365
 30
0.0
  0
SPLINE
  5
30D
330
1F
100
AcDbEntity
  8
0
  6
Continuous
 62
     7
370
     5
100
AcDbSpline
210
0.0
220
0.0
230
1.0
 70
     8
 71
     3
 72
    11
 73
     7
 74
     0
 42
0.0000000001
 43
0.0000000001
 40
0.0
 40
0.0
 40
0.0
 40
0.0
 40
0.1870054041538076
 40
0.373867499745869
 40
0.560625552477866
 40
1.0
 40
1.0
 40
1.0
 40
1.0
 10
4.92444333068557
 20
7.711750589309365
 30
0.0
 10
4.921727060661476
 20
7.71272042078787
 30
0.0
 10
4.916296602182803
 20
7.714659340530243
 30
0.0
 10
4.909153073073719
 20
7.720814736116753
 30
0.0
 10
4.901934918591152
 20
7.732177944277982
 30
0.0
 10
4.901848671254622
 20
7.74128300409841
 30
0.0
 10
4.901788149119409
 20
7.747672275740809
 30
0.0
  0
LINE
  5
30E
330
1F
100
AcDbEntity
  8
0
  6
Continuous
 62
     7
370
     5
100
AcDbLine
 10
4.901788149119405
 20
7.74767227574081
 30
0.0
 11
4.901788149119405
 21
7.777079860352317
 31
0.0
  0
SPLINE
  5
30F
330
1F
100
AcDbEntity
  8
0
  6
Continuous
 62
     7
370
     5
100
AcDbSpline
210
0.0
220
0.0
230
1.0
 70
     8
 71
     3
 72
     9
 73
     5
 74
     0
 42
0.0000000001
 43
0.0000000001
 40
0.0
 40
0.0
 40
0.0
 40
0.0
 40
0.4130086873756295
 40
0.9999999999999998
 40
0.9999999999999998
 40
0.9999999999999998
 40
0.9999999999999998
 10
4.941152461025366
 20
7.721272672869947
 30
0.0
 10
4.942151938061823
 20
7.722029753884618
 30
0.0
 10
4.94457192840831
 20
7.723862841269484
 30
0.0
 10
4.94569319229375
 20
7.726821633264379
 30
0.0
 10
4.946351364453655
 20
7.728558418461246
 30
0.0
  0
SPLINE
  5
310
330
1F
100
AcDbEntity
  8
0
  6
Continuous
 62
     7
370
     5
100
AcDbSpline
210
0.0
220
0.0
230
1.0
 70
     8
 71
     3
 72
     9
 73
     5
 74
     0
 42
0.0000000001
 43
0.0000000001
 40
0.0
 40
0.0
 40
0.0
 40
0.0
 40
0.5596569689505712
 40
1.0
 40
1.0
 40
1.0
 40
1.0
 10
4.946351364453655
 20
7.728558418461246
 30
0.0
 10
4.946765425288124
 20
7.731373278218974
 30
0.0
 10
4.947505272833036
 20
7.736402894419423
 30
0.0
 10
4.947499522983529
 20
7.741682089454205
 30
0.0
 10
4.947496991077374
 20
7.74400674619732
 30
0.0
  0
LINE
  5
311
330
1F
100
AcDbEntity
  8
0
  6
Continuous
 62
     7
370
     5
100
AcDbLine
 10
4.947496991077374
 20
7.74400674619732
 30
0.0
 11
4.947496991077374
 21
7.764657176530151
 31
0.0
  0
LINE
  5
312
330
1F
100
AcDbEntity
  8
0
  6
Continuous
 62
     7
370
     5
100
AcDbLine
 10
4.947496991077374
 20
7.74400674619732
 30
0.0
 11
4.947030313524754
 21
7.7435512545993
 31
0.0
  0
LINE
  5
313
330
1F
100
AcDbEntity
  8
0
  6
Continuous
 62
     7
370
     5
100
AcDbLine
 10
4.946351364453655
 20
7.728558418461246
 30
0.0
 11
4.945884686901034
 21
7.728102926863226
 31
0.0
  0
LINE
  5
314
330
1F
100
AcDbEntity
  8
0
  6
Continuous
 62
     7
370
     5
100
AcDbLine
 10
4.901788149119405
 20
7.74767227574081
 30
0.0
 11
4.901321471566784
 21
7.74721678414279
 31
0.0
  0
LINE
  5
315
330
1F
100
AcDbEntity
  8
0
  6
Continuous
 62
     7
370
     5
100
AcDbLine
 10
4.835051247466644
 20
7.777255409782721
 30
0.0
 11
4.8284410648642
 21
7.782416338566423
 31
0.0
  0
LINE
  5
316
330
1F
100
AcDbEntity
  8
0
  6
Continuous
 62
     7
370
     5
100
AcDbLine
 10
4.8284410648642
 20
7.782416338566423
 30
0.0
 11
4.833666948629645
 21
7.788135490741759
 31
0.0
  0
SPLINE
  5
317
330
1F
100
AcDbEntity
  8
0
  6
Continuous
 62
     7
370
     5
100
AcDbSpline
210
0.0
220
0.0
230
1.0
 70
     8
 71
     3
 72
     9
 73
     5
 74
     0
 42
0.0000000001
 43
0.0000000001
 40
0.0
 40
0.0
 40
0.0
 40
0.0
 40
0.5585821358403351
 40
1.0
 40
1.0
 40
1.0
 40
1.0
 10
4.879929925204526
 20
7.734794759102348
 30
0.0
 10
4.876209611021738
 20
7.732257337271886
 30
0.0
 10
4.869549329669942
 20
7.727714725420107
 30
0.0
 10
4.860319535870877
 20
7.729498119752766
 30
0.0
 10
4.856245340005457
 20
7.730285341870043
 30
0.0
  0
SPLINE
  5
318
330
1F
100
AcDbEntity
  8
0
  6
Continuous
 62
     7
370
     5
100
AcDbSpline
210
0.0
220
0.0
230
1.0
 70
     8
 71
     3
 72
     9
 73
     5
 74
     0
 42
0.0000000001
 43
0.0000000001
 40
0.0
 40
0.0
 40
0.0
 40
0.0
 40
0.5588963140147995
 40
0.9999999999999998
 40
0.9999999999999998
 40
0.9999999999999998
 40
0.9999999999999998
 10
4.856245340005453
 20
7.730285341870044
 30
0.0
 10
4.850859828726954
 20
7.732353319825651
 30
0.0
 10
4.841223853066607
 20
7.736053430031696
 30
0.0
 10
4.834715567097141
 20
7.744672926865812
 30
0.0
 10
4.831844738166556
 20
7.748475018690681
 30
0.0
  0
SPLINE
  5
319
330
1F
100
AcDbEntity
  8
0
  6
Continuous
 62
     7
370
     5
100
AcDbSpline
210
0.0
220
0.0
230
1.0
 70
     8
 71
     3
 72
     9
 73
     5
 74
     0
 42
0.0000000001
 43
0.0000000001
 40
0.0
 40
0.0
 40
0.0
 40
0.0
 40
0.5588909230188178
 40
1.0
 40
1.0
 40
1.0
 40
1.0
 10
4.831844738166556
 20
7.748475018690681
 30
0.0
 10
4.829687004398378
 20
7.752594601793862
 30
0.0
 10
4.825826262204657
 20
7.759965598411469
 30
0.0
 10
4.825427192234643
 20
7.767377199293141
 30
0.0
 10
4.82525115884852
 20
7.770646523717007
 30
0.0
  0
SPLINE
  5
31A
330
1F
100
AcDbEntity
  8
0
  6
Continuous
 62
     7
370
     5
100
AcDbSpline
210
0.0
220
0.0
230
1.0
 70
     8
 71
     3
 72
    11
 73
     7
 74
     0
 42
0.0000000001
 43
0.0000000001
 40
0.0
 40
0.0
 40
0.0
 40
0.0
 40
0.2799328308297562
 40
0.559379823324152
 40
0.7795204732267122
 40
1.0
 40
1.0
 40
1.0
 40
1.0
 10
4.879465033241276
 20
7.755912354319866
 30
0.0
 10
4.879082704136037
 20
7.759197635624643
 30
0.0
 10
4.878318709478071
 20
7.765762496453541
 30
0.0
 10
4.872445839808505
 20
7.774542387089344
 30
0.0
 10
4.865102655053499
 20
7.780841226526946
 30
0.0
 10
4.859940715058061
 20
7.782650565143224
 30
0.0
 10
4.857357760060375
 20
7.783555930224096
 30
0.0
  0
SPLINE
  5
31B
330
1F
100
AcDbEntity
  8
0
  6
Continuous
 62
     7
370
     5
100
AcDbSpline
210
0.0
220
0.0
230
1.0
 70
     8
 71
     3
 72
    10
 73
     6
 74
     0
 42
0.0000000001
 43
0.0000000001
 40
0.0
 40
0.0
 40
0.0
 40
0.0
 40
0.3549546873413924
 40
0.7097853619257104
 40
1.0
 40
1.0
 40
1.0
 40
1.0
 10
4.85735776006037
 20
7.783555930224097
 30
0.0
 10
4.854864418507056
 20
7.784015809034785
 30
0.0
 10
4.849878606514894
 20
7.784935405985396
 30
0.0
 10
4.842972512040271
 20
7.784254348795795
 30
0.0
 10
4.840131575492865
 20
7.78148477479526
 30
0.0
 10
4.838853399594641
 20
7.780238705875123
 30
0.0
  0
SPLINE
  5
31C
330
1F
100
AcDbEntity
  8
0
  6
Continuous
 62
     7
370
     5
100
AcDbSpline
210
0.0
220
0.0
230
1.0
 70
     8
 71
     3
 72
     9
 73
     5
 74
     0
 42
0.0000000001
 43
0.0000000001
 40
0.0
 40
0.0
 40
0.0
 40
0.0
 40
0.5587740777212119
 40
1.0
 40
1.0
 40
1.0
 40
1.0
 10
4.871474702622942
 20
7.738863423180848
 30
0.0
 10
4.873282915339561
 20
7.74035606064144
 30
0.0
 10
4.87651895077628
 20
7.743027332484753
 30
0.0
 10
4.878021649322459
 20
7.747110927564339
 30
0.0
 10
4.878684678874394
 20
7.748912715569544
 30
0.0
  0
LINE
  5
31D
330
1F
100
AcDbEntity
  8
0
  6
Continuous
 62
     7
370
     5
100
AcDbLine
 10
4.878684678874394
 20
7.748912715569544
 30
0.0
 11
4.832691505671047
 21
7.761412674531723
 31
0.0
  0
SPLINE
  5
31E
330
1F
100
AcDbEntity
  8
0
  6
Continuous
 62
     7
370
     5
100
AcDbSpline
210
0.0
220
0.0
230
1.0
 70
     8
 71
     3
 72
    11
 73
     7
 74
     0
 42
0.0000000001
 43
0.0000000001
 40
0.0
 40
0.0
 40
0.0
 40
0.0
 40
0.2799155574443386
 40
0.5598247740720832
 40
0.7799741888119695
 40
1.0
 40
1.0
 40
1.0
 40
1.0
 10
4.975699745044268
 20
7.674124409324618
 30
0.0
 10
4.974715406477785
 20
7.674490480478934
 30
0.0
 10
4.97274675164266
 20
7.675222614495098
 30
0.0
 10
4.970464932527537
 20
7.677451521476676
 30
0.0
 10
4.969002540412841
 20
7.679910329893591
 30
0.0
 10
4.968839162681033
 20
7.681453469975529
 30
0.0
 10
4.968757496753798
 20
7.682224823355515
 30
0.0
  0
SPLINE
  5
31F
330
1F
100
AcDbEntity
  8
0
  6
Continuous
 62
     7
370
     5
100
AcDbSpline
210
0.0
220
0.0
230
1.0
 70
     8
 71
     3
 72
    11
 73
     7
 74
     0
 42
0.0000000001
 43
0.0000000001
 40
0.0
 40
0.0
 40
0.0
 40
0.0
 40
0.2793468437679733
 40
0.5589993834500328
 40
0.7793851835218592
 40
1.0
 40
1.0
 40
1.0
 40
1.0
 10
4.982575580197138
 20
7.678469364361327
 30
0.0
 10
4.982441437125972
 20
7.677556269936792
 30
0.0
 10
4.982173004187671
 20
7.675729081866718
 30
0.0
 10
4.980210170669085
 20
7.674291547513529
 30
0.0
 10
4.978009371993768
 20
7.673666710868695
 30
0.0
 10
4.976469887184486
 20
7.673971790362283
 30
0.0
 10
4.975699745044268
 20
7.674124409324618
 30
0.0
  0
LINE
  5
320
330
1F
100
AcDbEntity
  8
0
  6
Continuous
 62
     7
370
     5
100
AcDbLine
 10
4.92444333068557
 20
7.711750589309365
 30
0.0
 11
4.923976653132949
 21
7.711295097711345
 31
0.0
  0
LINE
  5
321
330
1F
100
AcDbEntity
  8
0
  6
Continuous
 62
     7
370
     5
100
AcDbLine
 10
4.947496991077374
 20
7.7171075812838
 30
0.0
 11
4.947030313524754
 21
7.71665208968578
 31
0.0
  0
LINE
  5
322
330
1F
100
AcDbEntity
  8
0
  6
Continuous
 62
     7
370
     5
100
AcDbLine
 10
4.947496991077374
 20
7.706515344444527
 30
0.0
 11
4.947030313524754
 21
7.706059852846507
 31
0.0
  0
LINE
  5
323
330
1F
100
AcDbEntity
  8
0
  6
Continuous
 62
     7
370
     5
100
AcDbLine
 10
4.968757496753793
 20
7.682224823355515
 30
0.0
 11
4.968290819201173
 21
7.681769331757496
 31
0.0
  0
LINE
  5
324
330
1F
100
AcDbEntity
  8
0
  6
Continuous
 62
     7
370
     5
100
AcDbLine
 10
4.975699745044268
 20
7.674124409324618
 30
0.0
 11
4.975233067491647
 21
7.673668917726598
 31
0.0
  0
LINE
  5
325
330
1F
100
AcDbEntity
  8
0
  6
Continuous
 62
     7
370
     5
100
AcDbLine
 10
4.85735776006037
 20
7.783555930224097
 30
0.0
 11
4.856891082507749
 21
7.783100438626077
 31
0.0
  0
LINE
  5
326
330
1F
100
AcDbEntity
  8
0
  6
Continuous
 62
     7
370
     5
100
AcDbLine
 10
4.879465033241276
 20
7.755912354319866
 30
0.0
 11
4.878998355688654
 21
7.755456862721846
 31
0.0
  0
LINE
  5
327
330
1F
100
AcDbEntity
  8
0
  6
Continuous
 62
     7
370
     5
100
AcDbLine
 10
4.8284410648642
 20
7.782416338566423
 30
0.0
 11
4.827974387311579
 21
7.781960846968403
 31
0.0
  0
LINE
  5
328
330
1F
100
AcDbEntity
  8
0
  6
Continuous
 62
     7
370
     5
100
AcDbLine
 10
4.832691505671047
 20
7.761412674531723
 30
0.0
 11
4.832224828118427
 21
7.760957182933704
 31
0.0
  0
LINE
  5
329
330
1F
100
AcDbEntity
  8
0
  6
Continuous
 62
     7
370
     5
100
AcDbLine
 10
4.878684678874394
 20
7.748912715569544
 30
0.0
 11
4.878218001321773
 21
7.748457223971524
 31
0.0
  0
LINE
  5
32A
330
1F
100
AcDbEntity
  8
0
  6
Continuous
 62
     7
370
     5
100
AcDbLine
 10
4.878218001321773
 20
7.748457223971524
 30
0.0
 11
4.832224828118427
 21
7.760957182933704
 31
0.0
  0
SPLINE
  5
32B
330
1F
100
AcDbEntity
  8
0
  6
Continuous
 62
     7
370
     5
100
AcDbSpline
210
0.0
220
0.0
230
1.0
 70
     8
 71
     3
 72
     9
 73
     5
 74
     0
 42
0.0000000001
 43
0.0000000001
 40
0.0
 40
0.0
 40
0.0
 40
0.0
 40
0.5587740777212119
 40
1.0
 40
1.0
 40
1.0
 40
1.0
 10
4.871008025070321
 20
7.738407931582829
 30
0.0
 10
4.872816237786939
 20
7.739900569043419
 30
0.0
 10
4.87605227322366
 20
7.742571840886733
 30
0.0
 10
4.877554971769837
 20
7.746655435966319
 30
0.0
 10
4.878218001321773
 20
7.748457223971524
 30
0.0
  0
SPLINE
  5
32C
330
1F
100
AcDbEntity
  8
0
  6
Continuous
 62
     7
370
     5
100
AcDbSpline
210
0.0
220
0.0
230
1.0
 70
     8
 71
     3
 72
     9
 73
     5
 74
     0
 42
0.0000000001
 43
0.0000000001
 40
0.0
 40
0.0
 40
0.0
 40
0.0
 40
0.5594627635675793
 40
1.0
 40
1.0
 40
1.0
 40
1.0
 10
4.855394711501043
 20
7.737145922259916
 30
0.0
 10
4.858610844943074
 20
7.736540691266698
 30
0.0
 10
4.864359455309053
 20
7.73545888380313
 30
0.0
 10
4.868974795748104
 20
7.737506069884208
 30
0.0
 10
4.871008025070321
 20
7.738407931582829
 30
0.0
  0
SPLINE
  5
32D
330
1F
100
AcDbEntity
  8
0
  6
Continuous
 62
     7
370
     5
100
AcDbSpline
210
0.0
220
0.0
230
1.0
 70
     8
 71
     3
 72
    11
 73
     7
 74
     0
 42
0.0000000001
 43
0.0000000001
 40
0.0
 40
0.0
 40
0.0
 40
0.0
 40
0.2801786478018791
 40
0.5592666526985168
 40
0.7796602794247272
 40
1.0
 40
1.0
 40
1.0
 40
1.0
 10
4.832224828118427
 20
7.760957182933704
 30
0.0
 10
4.833128407197444
 20
7.757926310236143
 30
0.0
 10
4.834932048020679
 20
7.751876363027036
 30
0.0
 10
4.841318512563161
 20
7.744567424411846
 30
0.0
 10
4.848371221280526
 20
7.739590287958209
 30
0.0
 10
4.85305373900065
 20
7.737960644385377
 30
0.0
 10
4.855394711501043
 20
7.737145922259916
 30
0.0
  0
LINE
  5
32E
330
1F
100
AcDbEntity
  8
0
  6
Continuous
 62
     7
370
     5
100
AcDbLine
 10
5.958973517473203
 20
5.453987170018088
 30
0.0
 11
5.983241708479614
 21
5.47767366841613
 31
0.0
  0
LINE
  5
32F
330
1F
100
AcDbEntity
  8
0
  6
Continuous
 62
     7
370
     5
100
AcDbLine
 10
5.983241708479614
 20
5.47767366841613
 30
0.0
 11
5.983241708479614
 21
6.656278731924276
 31
0.0
  0
LINE
  5
330
330
1F
100
AcDbEntity
  8
0
  6
Continuous
 62
     7
370
     5
100
AcDbLine
 10
4.856245340005453
 20
7.730285341870044
 30
0.0
 11
4.855778662452832
 21
7.729829850272024
 31
0.0
  0
LINE
  5
331
330
1F
100
AcDbEntity
  8
0
  6
Continuous
 62
     7
370
     5
100
AcDbLine
 10
4.831844738166556
 20
7.748475018690681
 30
0.0
 11
4.831378060613936
 21
7.748019527092661
 31
0.0
  0
LINE
  5
332
330
1F
100
AcDbEntity
  8
0
  6
Continuous
 62
     7
370
     5
100
AcDbLine
 10
4.655310316765137
 20
7.83607784969411
 30
0.0
 11
4.776452030581279
 21
7.803154127631819
 31
0.0
  0
LINE
  5
333
330
1F
100
AcDbEntity
  8
0
  6
Continuous
 62
     7
370
     5
100
AcDbLine
 10
4.655310316765137
 20
7.844067253805112
 30
0.0
 11
4.655310316765137
 21
7.83607784969411
 31
0.0
  0
LINE
  5
334
330
1F
100
AcDbEntity
  8
0
  6
Continuous
 62
     7
370
     5
100
AcDbLine
 10
4.655310316765137
 20
7.83607784969411
 30
0.0
 11
4.654843639212516
 21
7.83562235809609
 31
0.0
  0
ARC
  5
335
330
1F
100
AcDbEntity
  8
0
  6
Continuous
 62
     7
370
     5
100
AcDbCircle
 10
5.669218725443201
 20
6.817199737370225
 30
0.0
 40
0.089185034167901
100
AcDbArc
 50
162.1061572754521
 51
286.5037070991396
  0
ARC
  5
336
330
1F
100
AcDbEntity
  8
0
  6
Continuous
 62
     7
370
     5
100
AcDbCircle
 10
4.895351483587362
 20
7.134662833983832
 30
0.0
 40
0.0891832924295931
100
AcDbArc
 50
162.1040115145022
 51
286.5058369166516
  0
ARC
  5
337
330
1F
100
AcDbEntity
  8
0
  6
Continuous
 62
     7
370
     5
100
AcDbCircle
 10
5.337561893286943
 20
6.103742619178717
 30
0.0
 40
0.0891850341679003
100
AcDbArc
 50
162.1061572754524
 51
286.5037070991403
  0
ARC
  5
338
330
1F
100
AcDbEntity
  8
0
  6
Continuous
 62
     7
370
     5
100
AcDbCircle
 10
5.779770304002251
 20
5.60854650315602
 30
0.0
 40
0.0891844095321669
100
AcDbArc
 50
162.1044925470071
 51
286.506148419746
  0
ARC
  5
339
330
1F
100
AcDbEntity
  8
0
  6
Continuous
 62
     7
370
     5
100
AcDbCircle
 10
4.950629886575665
 20
5.994611358811535
 30
0.0
 40
0.0891861696177226
100
AcDbArc
 50
162.1066371661968
 51
286.5040038005559
  0
ENDSEC
  0
SECTION
  2
OBJECTS
  0
DICTIONARY
  5
C
330
0
100
AcDbDictionary
281
     1
  3
ACAD_COLOR
350
33C
  3
ACAD_GROUP
350
D
  3
ACAD_LAYOUT
350
1A
  3
ACAD_MATERIAL
350
33B
  3
ACAD_MLINESTYLE
350
17
  3
ACAD_PLOTSETTINGS
350
19
  3
ACAD_PLOTSTYLENAME
350
E
  3
ACAD_SCALELIST
350
47
  0
DICTIONARY
  5
33C
102
{ACAD_REACTORS
330
C
102
}
330
C
100
AcDbDictionary
281
     1
  0
DICTIONARY
  5
D
102
{ACAD_REACTORS
330
C
102
}
330
C
100
AcDbDictionary
281
     1
  0
DICTIONARY
  5
1A
102
{ACAD_REACTORS
330
C
102
}
330
C
100
AcDbDictionary
281
     1
  3
Layout1
350
1E
  3
Layout2
350
26
  3
Model
350
22
  0
DICTIONARY
  5
33B
102
{ACAD_REACTORS
330
C
102
}
330
C
100
AcDbDictionary
281
     1
  0
DICTIONARY
  5
17
102
{ACAD_REACTORS
330
C
102
}
330
C
100
AcDbDictionary
281
     1
  3
Standard
350
18
  0
DICTIONARY
  5
19
102
{ACAD_REACTORS
330
C
102
}
330
C
100
AcDbDictionary
281
     1
  0
ACDBDICTIONARYWDFLT
  5
E
102
{ACAD_REACTORS
330
C
102
}
330
C
100
AcDbDictionary
281
     1
  3
Normal
350
F
100
AcDbDictionaryWithDefault
340
F
  0
DICTIONARY
  5
47
102
{ACAD_REACTORS
330
C
102
}
330
C
100
AcDbDictionary
281
     1
  3
A0
350
48
  3
A1
350
49
  3
A2
350
4A
  3
A3
350
4B
  3
A4
350
4C
  3
A5
350
4D
  3
A6
350
4E
  3
A7
350
4F
  3
A8
350
50
  3
A9
350
51
  3
B0
350
52
  3
B1
350
53
  3
B2
350
54
  3
B3
350
55
  3
B4
350
56
  3
B5
350
57
  3
B6
350
58
  3
B7
350
59
  3
B8
350
5A
  3
B9
350
5B
  3
C0
350
5C
  3
C1
350
5D
  3
C2
350
5E
  3
C3
350
5F
  3
C4
350
60
  3
C5
350
61
  3
C6
350
62
  3
C7
350
63
  3
C8
350
64
  3
C9
350
65
  3
D0
350
66
  3
D1
350
67
  3
D2
350
68
  0
LAYOUT
  5
1E
102
{ACAD_REACTORS
330
1A
102
}
330
1A
100
AcDbPlotSettings
  1

  2
none_device
  4

  6

 40
0.0
 41
0.0
 42
0.0
 43
0.0
 44
0.0
 45
0.0
 46
0.0
 47
0.0
 48
0.0
 49
0.0
140
0.0
141
0.0
142
1.0
143
1.0
 70
   688
 72
     0
 73
     0
 74
     5
  7

 75
    16
147
1.0
 76
     0
 77
     2
 78
   300
148
0.0
149
0.0
100
AcDbLayout
  1
Layout1
 70
     1
 71
     1
 10
0.0
 20
0.0
 11
12.0
 21
9.0
 12
0.0
 22
0.0
 32
0.0
 14
1.000000000000000E+20
 24
1.000000000000000E+20
 34
1.000000000000000E+20
 15
-1.000000000000000E+20
 25
-1.000000000000000E+20
 35
-1.000000000000000E+20
146
0.0
 13
0.0
 23
0.0
 33
0.0
 16
1.0
 26
0.0
 36
0.0
 17
0.0
 27
1.0
 37
0.0
 76
     0
330
1B
  0
LAYOUT
  5
26
102
{ACAD_REACTORS
330
1A
102
}
330
1A
100
AcDbPlotSettings
  1

  2
none_device
  4

  6

 40
0.0
 41
0.0
 42
0.0
 43
0.0
 44
0.0
 45
0.0
 46
0.0
 47
0.0
 48
0.0
 49
0.0
140
0.0
141
0.0
142
1.0
143
1.0
 70
   688
 72
     0
 73
     0
 74
     5
  7

 75
    16
147
1.0
 76
     0
 77
     2
 78
   300
148
0.0
149
0.0
100
AcDbLayout
  1
Layout2
 70
     1
 71
     2
 10
0.0
 20
0.0
 11
0.0
 21
0.0
 12
0.0
 22
0.0
 32
0.0
 14
0.0
 24
0.0
 34
0.0
 15
0.0
 25
0.0
 35
0.0
146
0.0
 13
0.0
 23
0.0
 33
0.0
 16
1.0
 26
0.0
 36
0.0
 17
0.0
 27
1.0
 37
0.0
 76
     0
330
23
  0
LAYOUT
  5
22
102
{ACAD_REACTORS
330
1A
102
}
330
1A
100
AcDbPlotSettings
  1

  2
none_device
  4
Letter_(8.50_x_11.00_Inches)
  6

 40
6.349999999999999
 41
6.349999999999999
 42
6.350005079999999
 43
6.350005079999999
 44
215.9
 45
279.4
 46
0.0
 47
0.0
 48
0.0
 49
0.0
140
0.0
141
0.0
142
1.0
143
1.0
 70
  1712
 72
     0
 73
     0
 74
     0
  7

 75
     0
147
1.0
 76
     0
 77
     2
 78
   300
148
0.0
149
0.0
100
AcDbLayout
  1
Model
 70
     1
 71
     0
 10
0.0
 20
0.0
 11
11.0
 21
8.5
 12
0.0
 22
0.0
 32
0.0
 14
0.0
 24
0.0
 34
0.0
 15
11.0
 25
8.5
 35
0.0
146
0.0
 13
0.0
 23
0.0
 33
0.0
 16
1.0
 26
0.0
 36
0.0
 17
0.0
 27
1.0
 37
0.0
 76
     0
330
1F
  0
MLINESTYLE
  5
18
102
{ACAD_REACTORS
330
17
102
}
330
17
100
AcDbMlineStyle
  2
STANDARD
 70
     0
  3

 62
   256
 51
90.0
 52
90.0
 71
     2
 49
0.5
 62
   256
  6
BYLAYER
 49
-0.5
 62
   256
  6
BYLAYER
  0
ACDBPLACEHOLDER
  5
F
102
{ACAD_REACTORS
330
E
102
}
330
E
  0
ACAD_PROXY_OBJECT
  5
48
102
{ACAD_REACTORS
330
47
102
}
330
47
100
AcDbProxyObject
 90
      499
 91
      503
 95
   393239
 70
     0
 93
       41
310
903313A31580
 94
        0
  0
ACAD_PROXY_OBJECT
  5
49
102
{ACAD_REACTORS
330
47
102
}
330
47
100
AcDbProxyObject
 90
      499
 91
      503
 95
   393239
 70
     0
 93
      105
310
903313A324000000000000004000
 94
        0
  0
ACAD_PROXY_OBJECT
  5
4A
102
{ACAD_REACTORS
330
47
102
}
330
47
100
AcDbProxyObject
 90
      499
 91
      503
 95
   393239
 70
     0
 93
      105
310
903313A344000000000000104000
 94
        0
  0
ACAD_PROXY_OBJECT
  5
4B
102
{ACAD_REACTORS
330
47
102
}
330
47
100
AcDbProxyObject
 90
      499
 91
      503
 95
   393239
 70
     0
 93
      105
310
903313A354000000000000144000
 94
        0
  0
ACAD_PROXY_OBJECT
  5
4C
102
{ACAD_REACTORS
330
47
102
}
330
47
100
AcDbProxyObject
 90
      499
 91
      503
 95
   393239
 70
     0
 93
      105
310
903313A384000000000000204000
 94
        0
  0
ACAD_PROXY_OBJECT
  5
4D
102
{ACAD_REACTORS
330
47
102
}
330
47
100
AcDbProxyObject
 90
      499
 91
      503
 95
   393239
 70
     0
 93
      113
310
904313A31304000000000000244000
 94
        0
  0
ACAD_PROXY_OBJECT
  5
4E
102
{ACAD_REACTORS
330
47
102
}
330
47
100
AcDbProxyObject
 90
      499
 91
      503
 95
   393239
 70
     0
 93
      113
310
904313A31364000000000000304000
 94
        0
  0
ACAD_PROXY_OBJECT
  5
4F
102
{ACAD_REACTORS
330
47
102
}
330
47
100
AcDbProxyObject
 90
      499
 91
      503
 95
   393239
 70
     0
 93
      113
310
904313A32304000000000000344000
 94
        0
  0
ACAD_PROXY_OBJECT
  5
50
102
{ACAD_REACTORS
330
47
102
}
330
47
100
AcDbProxyObject
 90
      499
 91
      503
 95
   393239
 70
     0
 93
      113
310
904313A333040000000000003E4000
 94
        0
  0
ACAD_PROXY_OBJECT
  5
51
102
{ACAD_REACTORS
330
47
102
}
330
47
100
AcDbProxyObject
 90
      499
 91
      503
 95
   393239
 70
     0
 93
      113
310
904313A34304000000000000444000
 94
        0
  0
ACAD_PROXY_OBJECT
  5
52
102
{ACAD_REACTORS
330
47
102
}
330
47
100
AcDbProxyObject
 90
      499
 91
      503
 95
   393239
 70
     0
 93
      113
310
904313A35304000000000000494000
 94
        0
  0
ACAD_PROXY_OBJECT
  5
53
102
{ACAD_REACTORS
330
47
102
}
330
47
100
AcDbProxyObject
 90
      499
 91
      503
 95
   393239
 70
     0
 93
      121
310
905313A3130304000000000000594000
 94
        0
  0
ACAD_PROXY_OBJECT
  5
54
102
{ACAD_REACTORS
330
47
102
}
330
47
100
AcDbProxyObject
 90
      499
 91
      503
 95
   393239
 70
     0
 93
      105
310
903323A310000000000000010140
 94
        0
  0
ACAD_PROXY_OBJECT
  5
55
102
{ACAD_REACTORS
330
47
102
}
330
47
100
AcDbProxyObject
 90
      499
 91
      503
 95
   393239
 70
     0
 93
      105
310
903343A310000000000000410159
 94
        0
  0
ACAD_PROXY_OBJECT
  5
56
102
{ACAD_REACTORS
330
47
102
}
330
47
100
AcDbProxyObject
 90
      499
 91
      503
 95
   393239
 70
     0
 93
      105
310
903383A310000000000000810140
 94
        0
  0
ACAD_PROXY_OBJECT
  5
57
102
{ACAD_REACTORS
330
47
102
}
330
47
100
AcDbProxyObject
 90
      499
 91
      503
 95
   393239
 70
     0
 93
      113
310
90431303A310000000000000910140
 94
        0
  0
ACAD_PROXY_OBJECT
  5
58
102
{ACAD_REACTORS
330
47
102
}
330
47
100
AcDbProxyObject
 90
      499
 91
      503
 95
   393239
 70
     0
 93
      121
310
9053130303A310000000000001650100
 94
        0
  0
ACAD_PROXY_OBJECT
  5
59
102
{ACAD_REACTORS
330
47
102
}
330
47
100
AcDbProxyObject
 90
      499
 91
      503
 95
   393239
 70
     0
 93
      257
310
90E312F31323822203D2031272D3022000000000000200FC000000000000284000
 94
        0
  0
ACAD_PROXY_OBJECT
  5
5A
102
{ACAD_REACTORS
330
47
102
}
330
47
100
AcDbProxyObject
 90
      499
 91
      503
 95
   393239
 70
     0
 93
      249
310
90D312F363422203D2031272D3022000000000000240FC000000000000284000
 94
        0
  0
ACAD_PROXY_OBJECT
  5
5B
102
{ACAD_REACTORS
330
47
102
}
330
47
100
AcDbProxyObject
 90
      499
 91
      503
 95
   393239
 70
     0
 93
      249
310
90D312F333222203D2031272D3022000000000000280FC000000000000284040
 94
        0
  0
ACAD_PROXY_OBJECT
  5
5C
102
{ACAD_REACTORS
330
47
102
}
330
47
100
AcDbProxyObject
 90
      499
 91
      503
 95
   393239
 70
     0
 93
      249
310
90D312F313622203D2031272D30220000000000002C0FC000000000000284000
 94
        0
  0
ACAD_PROXY_OBJECT
  5
5D
102
{ACAD_REACTORS
330
47
102
}
330
47
100
AcDbProxyObject
 90
      499
 91
      503
 95
   393239
 70
     0
 93
      249
310
90D332F333222203D2031272D30220000000000002E0FC000000000000284040
 94
        0
  0
ACAD_PROXY_OBJECT
  5
5E
102
{ACAD_REACTORS
330
47
102
}
330
47
100
AcDbProxyObject
 90
      499
 91
      503
 95
   393239
 70
     0
 93
      241
310
90C312F3822203D2031272D3022000000000000300FC000000000000284040
 94
        0
  0
ACAD_PROXY_OBJECT
  5
5F
102
{ACAD_REACTORS
330
47
102
}
330
47
100
AcDbProxyObject
 90
      499
 91
      503
 95
   393239
 70
     0
 93
      249
310
90D332F313622203D2031272D3022000000000000320FC000000000000284040
 94
        0
  0
ACAD_PROXY_OBJECT
  5
60
102
{ACAD_REACTORS
330
47
102
}
330
47
100
AcDbProxyObject
 90
      499
 91
      503
 95
   393239
 70
     0
 93
      241
310
90C312F3422203D2031272D3022000000000000340FC000000000000284040
 94
        0
  0
ACAD_PROXY_OBJECT
  5
61
102
{ACAD_REACTORS
330
47
102
}
330
47
100
AcDbProxyObject
 90
      499
 91
      503
 95
   393239
 70
     0
 93
      241
310
90C332F3822203D2031272D3022000000000000360FC000000000000284040
 94
        0
  0
ACAD_PROXY_OBJECT
  5
62
102
{ACAD_REACTORS
330
47
102
}
330
47
100
AcDbProxyObject
 90
      499
 91
      503
 95
   393239
 70
     0
 93
      241
310
90C312F3222203D2031272D3022000000000000380FC000000000000284040
 94
        0
  0
ACAD_PROXY_OBJECT
  5
63
102
{ACAD_REACTORS
330
47
102
}
330
47
100
AcDbProxyObject
 90
      499
 91
      503
 95
   393239
 70
     0
 93
      241
310
90C332F3422203D2031272D30220000000000003A0FC000000000000284040
 94
        0
  0
ACAD_PROXY_OBJECT
  5
64
102
{ACAD_REACTORS
330
47
102
}
330
47
100
AcDbProxyObject
 90
      499
 91
      503
 95
   393239
 70
     0
 93
      161
310
90A3122203D2031272D30224000000000000284000
 94
        0
  0
ACAD_PROXY_OBJECT
  5
65
102
{ACAD_REACTORS
330
47
102
}
330
47
100
AcDbProxyObject
 90
      499
 91
      503
 95
   393239
 70
     0
 93
      257
310
90E312D312F3222203D2031272D30220000000000003E0FC000000000000284000
 94
        0
  0
ACAD_PROXY_OBJECT
  5
66
102
{ACAD_REACTORS
330
47
102
}
330
47
100
AcDbProxyObject
 90
      499
 91
      503
 95
   393239
 70
     0
 93
      225
310
90A3322203D2031272D302200000000000002100000000000000284028
 94
        0
  0
ACAD_PROXY_OBJECT
  5
67
102
{ACAD_REACTORS
330
47
102
}
330
47
100
AcDbProxyObject
 90
      499
 91
      503
 95
   393239
 70
     0
 93
      225
310
90A3622203D2031272D302200000000000006100000000000000284000
 94
        0
  0
ACAD_PROXY_OBJECT
  5
68
102
{ACAD_REACTORS
330
47
102
}
330
47
100
AcDbProxyObject
 90
      499
 91
      503
 95
   393239
 70
     0
 93
      249
310
90D31272D3022203D2031272D30220000000000000A100000000000000284000
 94
        0
  0
ENDSEC
  0
EOF